  0
SECTION
  2
HEADER
  9
$ACADVER
  1
AC1024
  9
$ACADMAINTVER
 70
   205
  9
$DWGCODEPAGE
  3
ANSI_1251
  9
$INSBASE
 10
0.0
 20
0.0
 30
0.0
  9
$EXTMIN
 10
1.000000000000000E+20
 20
1.000000000000000E+20
 30
1.000000000000000E+20
  9
$EXTMAX
 10
-1.000000000000000E+20
 20
-1.000000000000000E+20
 30
-1.000000000000000E+20
  9
$LIMMIN
 10
0.0
 20
0.0
  9
$LIMMAX
 10
12.0
 20
9.0
  9
$ORTHOMODE
 70
     0
  9
$REGENMODE
 70
     1
  9
$FILLMODE
 70
     1
  9
$QTEXTMODE
 70
     0
  9
$MIRRTEXT
 70
     1
  9
$LTSCALE
 40
1.0
  9
$ATTMODE
 70
     1
  9
$TEXTSIZE
 40
0.2
  9
$TRACEWID
 40
0.05
  9
$TEXTSTYLE
  7
Standard
  9
$CLAYER
  8
OracDecor_panel_moldings
  9
$CELTYPE
  6
ByLayer
  9
$CECOLOR
 62
   256
  9
$CELTSCALE
 40
1.0
  9
$DISPSILH
 70
     0
  9
$DIMSCALE
 40
1.0
  9
$DIMASZ
 40
0.18
  9
$DIMEXO
 40
0.0625
  9
$DIMDLI
 40
0.38
  9
$DIMRND
 40
0.0
  9
$DIMDLE
 40
0.0
  9
$DIMEXE
 40
0.18
  9
$DIMTP
 40
0.0
  9
$DIMTM
 40
0.0
  9
$DIMTXT
 40
0.18
  9
$DIMCEN
 40
0.09
  9
$DIMTSZ
 40
0.0
  9
$DIMTOL
 70
     0
  9
$DIMLIM
 70
     0
  9
$DIMTIH
 70
     1
  9
$DIMTOH
 70
     1
  9
$DIMSE1
 70
     0
  9
$DIMSE2
 70
     0
  9
$DIMTAD
 70
     0
  9
$DIMZIN
 70
     0
  9
$DIMBLK
  1

  9
$DIMASO
 70
     1
  9
$DIMSHO
 70
     1
  9
$DIMPOST
  1

  9
$DIMAPOST
  1

  9
$DIMALT
 70
     0
  9
$DIMALTD
 70
     2
  9
$DIMALTF
 40
25.4
  9
$DIMLFAC
 40
1.0
  9
$DIMTOFL
 70
     0
  9
$DIMTVP
 40
0.0
  9
$DIMTIX
 70
     0
  9
$DIMSOXD
 70
     0
  9
$DIMSAH
 70
     0
  9
$DIMBLK1
  1

  9
$DIMBLK2
  1

  9
$DIMSTYLE
  2
Standard
  9
$DIMCLRD
 70
     0
  9
$DIMCLRE
 70
     0
  9
$DIMCLRT
 70
     0
  9
$DIMTFAC
 40
1.0
  9
$DIMGAP
 40
0.09
  9
$DIMJUST
 70
     0
  9
$DIMSD1
 70
     0
  9
$DIMSD2
 70
     0
  9
$DIMTOLJ
 70
     1
  9
$DIMTZIN
 70
     0
  9
$DIMALTZ
 70
     0
  9
$DIMALTTZ
 70
     0
  9
$DIMUPT
 70
     0
  9
$DIMDEC
 70
     4
  9
$DIMTDEC
 70
     4
  9
$DIMALTU
 70
     2
  9
$DIMALTTD
 70
     2
  9
$DIMTXSTY
  7
Standard
  9
$DIMAUNIT
 70
     0
  9
$DIMADEC
 70
     0
  9
$DIMALTRND
 40
0.0
  9
$DIMAZIN
 70
     0
  9
$DIMDSEP
 70
    46
  9
$DIMATFIT
 70
     3
  9
$DIMFRAC
 70
     0
  9
$DIMLDRBLK
  1

  9
$DIMLUNIT
 70
     2
  9
$DIMLWD
 70
    -2
  9
$DIMLWE
 70
    -2
  9
$DIMTMOVE
 70
     0
  9
$DIMFXL
 40
1.0
  9
$DIMFXLON
 70
     0
  9
$DIMJOGANG
 40
0.7853981633974483
  9
$DIMTFILL
 70
     0
  9
$DIMTFILLCLR
 70
     0
  9
$DIMARCSYM
 70
     0
  9
$DIMLTYPE
  6

  9
$DIMLTEX1
  6

  9
$DIMLTEX2
  6

  9
$DIMTXTDIRECTION
 70
     0
  9
$LUNITS
 70
     2
  9
$LUPREC
 70
     4
  9
$SKETCHINC
 40
0.1
  9
$FILLETRAD
 40
0.5
  9
$AUNITS
 70
     0
  9
$AUPREC
 70
     0
  9
$MENU
  1
.
  9
$ELEVATION
 40
0.0
  9
$PELEVATION
 40
0.0
  9
$THICKNESS
 40
0.0
  9
$LIMCHECK
 70
     0
  9
$CHAMFERA
 40
0.5
  9
$CHAMFERB
 40
0.5
  9
$CHAMFERC
 40
1.0
  9
$CHAMFERD
 40
0.0
  9
$SKPOLY
 70
     0
  9
$TDCREATE
 40
2451380.930432396
  9
$TDUCREATE
 40
2451380.805432396
  9
$TDUPDATE
 40
2451380.966180555
  9
$TDUUPDATE
 40
2451380.841180556
  9
$TDINDWG
 40
0.0075615162
  9
$TDUSRTIMER
 40
0.0075524769
  9
$USRTIMER
 70
     1
  9
$ANGBASE
 50
0.0
  9
$ANGDIR
 70
     0
  9
$PDMODE
 70
     0
  9
$PDSIZE
 40
0.0
  9
$PLINEWID
 40
0.0
  9
$SPLFRAME
 70
     0
  9
$SPLINETYPE
 70
     6
  9
$SPLINESEGS
 70
     8
  9
$HANDSEED
  5
196
  9
$SURFTAB1
 70
     6
  9
$SURFTAB2
 70
     6
  9
$SURFTYPE
 70
     6
  9
$SURFU
 70
     6
  9
$SURFV
 70
     6
  9
$UCSBASE
  2

  9
$UCSNAME
  2

  9
$UCSORG
 10
0.0
 20
0.0
 30
0.0
  9
$UCSXDIR
 10
1.0
 20
0.0
 30
0.0
  9
$UCSYDIR
 10
0.0
 20
1.0
 30
0.0
  9
$UCSORTHOREF
  2

  9
$UCSORTHOVIEW
 70
     0
  9
$UCSORGTOP
 10
0.0
 20
0.0
 30
0.0
  9
$UCSORGBOTTOM
 10
0.0
 20
0.0
 30
0.0
  9
$UCSORGLEFT
 10
0.0
 20
0.0
 30
0.0
  9
$UCSORGRIGHT
 10
0.0
 20
0.0
 30
0.0
  9
$UCSORGFRONT
 10
0.0
 20
0.0
 30
0.0
  9
$UCSORGBACK
 10
0.0
 20
0.0
 30
0.0
  9
$PUCSBASE
  2

  9
$PUCSNAME
  2

  9
$PUCSORG
 10
0.0
 20
0.0
 30
0.0
  9
$PUCSXDIR
 10
1.0
 20
0.0
 30
0.0
  9
$PUCSYDIR
 10
0.0
 20
1.0
 30
0.0
  9
$PUCSORTHOREF
  2

  9
$PUCSORTHOVIEW
 70
     0
  9
$PUCSORGTOP
 10
0.0
 20
0.0
 30
0.0
  9
$PUCSORGBOTTOM
 10
0.0
 20
0.0
 30
0.0
  9
$PUCSORGLEFT
 10
0.0
 20
0.0
 30
0.0
  9
$PUCSORGRIGHT
 10
0.0
 20
0.0
 30
0.0
  9
$PUCSORGFRONT
 10
0.0
 20
0.0
 30
0.0
  9
$PUCSORGBACK
 10
0.0
 20
0.0
 30
0.0
  9
$USERI1
 70
     0
  9
$USERI2
 70
     0
  9
$USERI3
 70
     0
  9
$USERI4
 70
     0
  9
$USERI5
 70
     0
  9
$USERR1
 40
0.0
  9
$USERR2
 40
0.0
  9
$USERR3
 40
0.0
  9
$USERR4
 40
0.0
  9
$USERR5
 40
0.0
  9
$WORLDVIEW
 70
     1
  9
$SHADEDGE
 70
     3
  9
$SHADEDIF
 70
    70
  9
$TILEMODE
 70
     1
  9
$MAXACTVP
 70
    64
  9
$PINSBASE
 10
0.0
 20
0.0
 30
0.0
  9
$PLIMCHECK
 70
     0
  9
$PEXTMIN
 10
1.000000000000000E+20
 20
1.000000000000000E+20
 30
1.000000000000000E+20
  9
$PEXTMAX
 10
-1.000000000000000E+20
 20
-1.000000000000000E+20
 30
-1.000000000000000E+20
  9
$PLIMMIN
 10
0.0
 20
0.0
  9
$PLIMMAX
 10
12.0
 20
9.0
  9
$UNITMODE
 70
     0
  9
$VISRETAIN
 70
     1
  9
$PLINEGEN
 70
     0
  9
$PSLTSCALE
 70
     1
  9
$TREEDEPTH
 70
  3020
  9
$CMLSTYLE
  2
Standard
  9
$CMLJUST
 70
     0
  9
$CMLSCALE
 40
1.0
  9
$PROXYGRAPHICS
 70
     1
  9
$MEASUREMENT
 70
     1
  9
$CELWEIGHT
370
    -1
  9
$ENDCAPS
280
     0
  9
$JOINSTYLE
280
     0
  9
$LWDISPLAY
290
     0
  9
$INSUNITS
 70
     4
  9
$HYPERLINKBASE
  1

  9
$STYLESHEET
  1

  9
$XEDIT
290
     1
  9
$CEPSNTYPE
380
     0
  9
$PSTYLEMODE
290
     1
  9
$FINGERPRINTGUID
  2
{12F50282-3ED8-11D3-A8B7-0060B0F84BC6}
  9
$VERSIONGUID
  2
{12F50293-3ED8-11D3-A8B7-0060B0F84BC6}
  9
$EXTNAMES
290
     1
  9
$PSVPSCALE
 40
0.0
  9
$OLESTARTUP
290
     0
  9
$SORTENTS
280
   127
  9
$INDEXCTL
280
     0
  9
$HIDETEXT
280
     0
  9
$XCLIPFRAME
280
     2
  9
$HALOGAP
280
     0
  9
$OBSCOLOR
 70
   257
  9
$OBSLTYPE
280
     0
  9
$INTERSECTIONDISPLAY
280
     0
  9
$INTERSECTIONCOLOR
 70
   257
  9
$DIMASSOC
280
     1
  9
$PROJECTNAME
  1

  9
$CAMERADISPLAY
290
     0
  9
$LENSLENGTH
 40
50.0
  9
$CAMERAHEIGHT
 40
0.0
  9
$STEPSPERSEC
 40
2.0
  9
$STEPSIZE
 40
6.0
  9
$3DDWFPREC
 40
2.0
  9
$PSOLWIDTH
 40
0.25
  9
$PSOLHEIGHT
 40
4.0
  9
$LOFTANG1
 40
1.570796326794896
  9
$LOFTANG2
 40
1.570796326794896
  9
$LOFTMAG1
 40
0.0
  9
$LOFTMAG2
 40
0.0
  9
$LOFTPARAM
 70
     7
  9
$LOFTNORMALS
280
     1
  9
$LATITUDE
 40
37.795
  9
$LONGITUDE
 40
-122.394
  9
$NORTHDIRECTION
 40
0.0
  9
$TIMEZONE
 70
 -8000
  9
$LIGHTGLYPHDISPLAY
280
     1
  9
$TILEMODELIGHTSYNCH
280
     1
  9
$CMATERIAL
347
AB
  9
$SOLIDHIST
280
     0
  9
$SHOWHIST
280
     1
  9
$DWFFRAME
280
     2
  9
$DGNFRAME
280
     0
  9
$REALWORLDSCALE
290
     1
  9
$INTERFERECOLOR
 62
     1
  9
$INTERFEREOBJVS
345
CD
  9
$INTERFEREVPVS
346
CA
  9
$CSHADOW
280
     0
  9
$SHADOWPLANELOCATION
 40
0.0
  0
ENDSEC
  0
SECTION
  2
CLASSES
  0
CLASS
  1
ACDBDICTIONARYWDFLT
  2
AcDbDictionaryWithDefault
  3
ObjectDBX Classes
 90
        0
 91
        1
280
     0
281
     0
  0
CLASS
  1
ACDBPLACEHOLDER
  2
AcDbPlaceHolder
  3
ObjectDBX Classes
 90
        0
 91
        2
280
     0
281
     0
  0
CLASS
  1
LAYOUT
  2
AcDbLayout
  3
ObjectDBX Classes
 90
        0
 91
        3
280
     0
281
     0
  0
CLASS
  1
MATERIAL
  2
AcDbMaterial
  3
ObjectDBX Classes
 90
     1153
 91
        3
280
     0
281
     0
  0
CLASS
  1
VISUALSTYLE
  2
AcDbVisualStyle
  3
ObjectDBX Classes
 90
     4095
 91
       24
280
     0
281
     0
  0
CLASS
  1
TABLESTYLE
  2
AcDbTableStyle
  3
ObjectDBX Classes
 90
     4095
 91
        1
280
     0
281
     0
  0
CLASS
  1
SCALE
  2
AcDbScale
  3
ObjectDBX Classes
 90
     1153
 91
       17
280
     0
281
     0
  0
CLASS
  1
MLEADERSTYLE
  2
AcDbMLeaderStyle
  3
ACDB_MLEADERSTYLE_CLASS
 90
     4095
 91
        1
280
     0
281
     0
  0
CLASS
  1
ACDBSECTIONVIEWSTYLE
  2
AcDbSectionViewStyle
  3
ObjectDBX Classes
 90
     1025
 91
        1
280
     0
281
     0
  0
CLASS
  1
ACDBDETAILVIEWSTYLE
  2
AcDbDetailViewStyle
  3
ObjectDBX Classes
 90
     1025
 91
        1
280
     0
281
     0
  0
CLASS
  1
MESH
  2
AcDbSubDMesh
  3
ObjectDBX Classes
 90
        0
 91
        1
280
     0
281
     1
  0
CLASS
  1
DICTIONARYVAR
  2
AcDbDictionaryVar
  3
ObjectDBX Classes
 90
        0
 91
        9
280
     0
281
     0
  0
CLASS
  1
CELLSTYLEMAP
  2
AcDbCellStyleMap
  3
ObjectDBX Classes
 90
     1152
 91
        1
280
     0
281
     0
  0
ENDSEC
  0
SECTION
  2
TABLES
  0
TABLE
  2
VPORT
  5
8
330
0
100
AcDbSymbolTable
 70
     1
  0
VPORT
  5
A8
330
8
100
AcDbSymbolTableRecord
100
AcDbViewportTableRecord
  2
*Active
 70
     0
 10
0.0
 20
0.0
 11
1.0
 21
1.0
 12
0.0000000000000754
 22
10.20649814605713
 13
0.0
 23
0.0
 14
0.5
 24
0.5
 15
0.5
 25
0.5
 16
-1.0
 26
-1.0
 36
1.0
 17
0.0
 27
0.0
 37
0.0
 40
1033.613648388467
 41
1.690157717054489
 42
50.0
 43
0.0
 44
0.0
 50
0.0
 51
0.0
 71
     0
 72
   100
 73
     1
 74
     3
 75
     0
 76
     0
 77
     0
 78
     0
281
     0
 65
     1
110
0.0
120
0.0
130
0.0
111
1.0
121
0.0
131
0.0
112
0.0
122
1.0
132
0.0
 79
     0
146
0.0
348
C9
 60
     3
 61
     5
292
     1
282
     1
141
0.0
142
0.0
 63
   250
421
  3355443
  0
ENDTAB
  0
TABLE
  2
LTYPE
  5
5
330
0
100
AcDbSymbolTable
 70
     1
  0
LTYPE
  5
14
330
5
100
AcDbSymbolTableRecord
100
AcDbLinetypeTableRecord
  2
ByBlock
 70
     0
  3

 72
    65
 73
     0
 40
0.0
  0
LTYPE
  5
15
330
5
100
AcDbSymbolTableRecord
100
AcDbLinetypeTableRecord
  2
ByLayer
 70
     0
  3

 72
    65
 73
     0
 40
0.0
  0
LTYPE
  5
16
330
5
100
AcDbSymbolTableRecord
100
AcDbLinetypeTableRecord
  2
Continuous
 70
     0
  3
Solid line
 72
    65
 73
     0
 40
0.0
  0
ENDTAB
  0
TABLE
  2
LAYER
  5
2
330
0
100
AcDbSymbolTable
 70
     3
  0
LAYER
  5
10
330
2
100
AcDbSymbolTableRecord
100
AcDbLayerTableRecord
  2
0
 70
     0
 62
     7
  6
Continuous
370
    -3
390
F
347
BB
  0
LAYER
  5
2B
330
2
100
AcDbSymbolTableRecord
100
AcDbLayerTableRecord
  2
ASHADE
 70
     4
 62
     7
  6
Continuous
370
    -3
390
2D
347
BB
  0
LAYER
  5
F8
330
2
100
AcDbSymbolTableRecord
100
AcDbLayerTableRecord
  2
OracDecor_panel_moldings
 70
     0
 62
    56
420
  7440134
  6
Continuous
370
    -3
390
F
347
BB
  0
ENDTAB
  0
TABLE
  2
STYLE
  5
3
330
0
100
AcDbSymbolTable
 70
     2
  0
STYLE
  5
11
330
3
100
AcDbSymbolTableRecord
100
AcDbTextStyleTableRecord
  2
Standard
 70
     0
 40
0.0
 41
1.0
 50
0.0
 71
     0
 42
0.2
  3
txt
  4

  0
STYLE
  5
2C
330
3
100
AcDbSymbolTableRecord
100
AcDbTextStyleTableRecord
  2
ASHADE
 70
     0
 40
0.2
 41
1.0
 50
0.0
 71
     0
 42
0.2
  3
simplex
  4

  0
ENDTAB
  0
TABLE
  2
VIEW
  5
6
330
0
100
AcDbSymbolTable
 70
     0
  0
ENDTAB
  0
TABLE
  2
UCS
  5
7
330
0
100
AcDbSymbolTable
 70
     0
  0
ENDTAB
  0
TABLE
  2
APPID
  5
9
330
0
100
AcDbSymbolTable
 70
     6
  0
APPID
  5
12
330
9
100
AcDbSymbolTableRecord
100
AcDbRegAppTableRecord
  2
ACAD
 70
     0
  0
APPID
  5
8F
330
9
100
AcDbSymbolTableRecord
100
AcDbRegAppTableRecord
  2
AVE_RENDER
 70
     0
  0
APPID
  5
90
330
9
100
AcDbSymbolTableRecord
100
AcDbRegAppTableRecord
  2
AVE_ENTITY_MATERIAL
 70
     0
  0
APPID
  5
9C
330
9
100
AcDbSymbolTableRecord
100
AcDbRegAppTableRecord
  2
AVE_FINISH
 70
     0
  0
APPID
  5
9D
330
9
100
AcDbSymbolTableRecord
100
AcDbRegAppTableRecord
  2
AVE_MATERIAL
 70
     0
  0
APPID
  5
9E
330
9
100
AcDbSymbolTableRecord
100
AcDbRegAppTableRecord
  2
AVE_GLOBAL
 70
     0
  0
ENDTAB
  0
TABLE
  2
DIMSTYLE
  5
A
330
0
100
AcDbSymbolTable
 70
     1
100
AcDbDimStyleTable
 71
     0
  0
DIMSTYLE
105
27
330
A
100
AcDbSymbolTableRecord
100
AcDbDimStyleTableRecord
  2
Standard
 70
     0
340
11
  0
ENDTAB
  0
TABLE
  2
BLOCK_RECORD
  5
1
330
0
100
AcDbSymbolTable
 70
     6
  0
BLOCK_RECORD
  5
1F
330
1
100
AcDbSymbolTableRecord
100
AcDbBlockTableRecord
  2
*Model_Space
340
22
 70
     0
280
     1
281
     0
  0
BLOCK_RECORD
  5
1B
330
1
100
AcDbSymbolTableRecord
100
AcDbBlockTableRecord
  2
*Paper_Space
340
1E
 70
     0
280
     1
281
     0
  0
BLOCK_RECORD
  5
23
330
1
100
AcDbSymbolTableRecord
100
AcDbBlockTableRecord
  2
*Paper_Space0
340
26
 70
     0
280
     1
281
     0
  0
BLOCK_RECORD
  5
2E
330
1
100
AcDbSymbolTableRecord
100
AcDbBlockTableRecord
  2
direct
340
0
 70
     0
280
     1
281
     0
  0
BLOCK_RECORD
  5
42
330
1
100
AcDbSymbolTableRecord
100
AcDbBlockTableRecord
  2
overhead
340
0
 70
     0
280
     1
281
     0
  0
BLOCK_RECORD
  5
5F
330
1
100
AcDbSymbolTableRecord
100
AcDbBlockTableRecord
  2
sh_spot
340
0
 70
     0
280
     1
281
     0
  0
BLOCK_RECORD
  5
91
330
1
100
AcDbSymbolTableRecord
100
AcDbBlockTableRecord
  2
AVE_RENDER
340
0
102
{BLKREFS
331
94
331
95
331
96
331
97
331
98
331
99
331
9A
331
9B
102
}
 70
     0
280
     1
281
     0
  0
BLOCK_RECORD
  5
9F
330
1
100
AcDbSymbolTableRecord
100
AcDbBlockTableRecord
  2
AVE_GLOBAL
340
0
102
{BLKREFS
331
A2
102
}
 70
     0
280
     1
281
     0
  0
ENDTAB
  0
ENDSEC
  0
SECTION
  2
BLOCKS
  0
BLOCK
  5
20
330
1F
100
AcDbEntity
  8
0
100
AcDbBlockBegin
  2
*Model_Space
 70
     0
 10
0.0
 20
0.0
 30
0.0
  3
*Model_Space
  1

  0
ENDBLK
  5
21
330
1F
100
AcDbEntity
  8
0
100
AcDbBlockEnd
  0
BLOCK
  5
1C
330
1B
100
AcDbEntity
 67
     1
  8
0
100
AcDbBlockBegin
  2
*Paper_Space
 70
     0
 10
0.0
 20
0.0
 30
0.0
  3
*Paper_Space
  1

  0
ENDBLK
  5
1D
330
1B
100
AcDbEntity
 67
     1
  8
0
100
AcDbBlockEnd
  0
BLOCK
  5
24
330
23
100
AcDbEntity
 67
     1
  8
0
100
AcDbBlockBegin
  2
*Paper_Space0
 70
     0
 10
0.0
 20
0.0
 30
0.0
  3
*Paper_Space0
  1

  0
ENDBLK
  5
25
330
23
100
AcDbEntity
 67
     1
  8
0
100
AcDbBlockEnd
  0
BLOCK
  5
40
330
2E
100
AcDbEntity
  8
0
100
AcDbBlockBegin
  2
direct
 70
     2
 10
0.0
 20
0.0
 30
0.0
  3
direct
  1

  0
ATTDEF
  5
2F
330
2E
100
AcDbEntity
  8
ASHADE
  6
Continuous
 62
     1
100
AcDbText
 10
0.0
 20
-0.1
 30
0.0
 40
0.2
  1

  7
ASHADE
 72
     1
 11
0.0
 21
-0.1
 31
0.0
100
AcDbAttributeDefinition
280
     0
  3
Light Name
  2
SNAME
 70
     0
280
     0
  0
ARC
  5
30
330
2E
100
AcDbEntity
  8
ASHADE
  6
Continuous
 62
     7
100
AcDbCircle
 10
0.0
 20
0.0
 30
0.0
 40
0.3
100
AcDbArc
 50
205.6792886194569
 51
334.3207113805431
  0
ARC
  5
31
330
2E
100
AcDbEntity
  8
ASHADE
  6
Continuous
 62
     7
100
AcDbCircle
 10
0.0
 20
0.0
 30
0.0
 40
0.3
100
AcDbArc
 50
25.67928861945685
 51
154.3207113805431
  0
LINE
  5
32
330
2E
100
AcDbEntity
  8
ASHADE
  6
Continuous
 62
     7
100
AcDbLine
 10
-0.21
 20
0.2142428528562855
 30
0.0
 11
-0.21
 21
0.5
 31
0.0
  0
LINE
  5
33
330
2E
100
AcDbEntity
  8
ASHADE
  6
Continuous
 62
     7
100
AcDbLine
 10
-0.11
 20
0.2791057147390572
 30
0.0
 11
-0.11
 21
0.5
 31
0.0
  0
LINE
  5
34
330
2E
100
AcDbEntity
  8
ASHADE
  6
Continuous
 62
     7
100
AcDbLine
 10
0.21
 20
0.2142428528562855
 30
0.0
 11
0.21
 21
0.5
 31
0.0
  0
ATTDEF
  5
35
330
2E
100
AcDbEntity
  8
ASHADE
  6
Continuous
 62
     7
100
AcDbText
 10
0.0
 20
0.25
 30
0.0
 40
0.01
  1

100
AcDbAttributeDefinition
280
     0
  3
Look-at Y
  2
LAY
 70
     1
280
     0
  0
ATTDEF
  5
36
330
2E
100
AcDbEntity
  8
ASHADE
  6
Continuous
 62
     7
100
AcDbText
 10
0.0
 20
0.22
 30
0.0
 40
0.01
  1
1
100
AcDbAttributeDefinition
280
     0
  3
Light Intensity
  2
INTENSITY
 70
     1
280
     0
  0
ATTDEF
  5
37
330
2E
100
AcDbEntity
  8
ASHADE
  6
Continuous
 62
     7
100
AcDbText
 10
0.0
 20
0.16
 30
0.0
 40
0.01
  1
-1
100
AcDbAttributeDefinition
280
     0
  3
*not used*
  2
BEAMD
 70
     1
280
     0
  0
ATTDEF
  5
38
330
2E
100
AcDbEntity
  8
ASHADE
  6
Continuous
 62
     7
100
AcDbText
 10
0.0
 20
0.175
 30
0.0
 40
0.01
  1
-1
100
AcDbAttributeDefinition
280
     0
  3
*not used*
  2
CONED
 70
     1
280
     0
  0
ATTDEF
  5
39
330
2E
100
AcDbEntity
  8
ASHADE
  6
Continuous
 62
     7
100
AcDbText
 10
0.0
 20
0.19
 30
0.0
 40
0.01
  1
0
100
AcDbAttributeDefinition
280
     0
  3
Depth Map Size
  2
CONEA
 70
     1
280
     0
  0
ATTDEF
  5
3A
330
2E
100
AcDbEntity
  8
ASHADE
  6
Continuous
 62
     7
100
AcDbText
 10
0.0
 20
0.2050000000000001
 30
0.0
 40
0.01
  1
1,1,1
100
AcDbAttributeDefinition
280
     0
  3
Light Color (RGB)
  2
COLOR
 70
     1
280
     0
  0
ATTDEF
  5
3B
330
2E
100
AcDbEntity
  8
ASHADE
  6
Continuous
 62
     7
100
AcDbText
 10
0.0
 20
0.235
 30
0.0
 40
0.01
  1

100
AcDbAttributeDefinition
280
     0
  3
Look-at Z
  2
LAZ
 70
     1
280
     0
  0
LINE
  5
3C
330
2E
100
AcDbEntity
  8
ASHADE
  6
Continuous
 62
     7
100
AcDbLine
 10
0.0
 20
0.3
 30
0.0
 11
0.0
 21
0.5
 31
0.0
  0
LINE
  5
3D
330
2E
100
AcDbEntity
  8
ASHADE
  6
Continuous
 62
     7
100
AcDbLine
 10
0.11
 20
0.2791057147390572
 30
0.0
 11
0.11
 21
0.5
 31
0.0
  0
ATTDEF
  5
3E
330
2E
100
AcDbEntity
  8
ASHADE
  6
Continuous
 62
     7
100
AcDbText
 10
0.0
 20
0.265
 30
0.0
 40
0.01
  1

100
AcDbAttributeDefinition
280
     0
  3
Look-at X
  2
LAX
 70
     1
280
     0
  0
ATTDEF
  5
3F
330
2E
100
AcDbEntity
  8
ASHADE
  6
Continuous
 62
     7
100
AcDbText
 10
0.0
 20
0.28
 30
0.0
 40
0.01
  1

100
AcDbAttributeDefinition
280
     0
  3

  2
GNAME
 70
     1
280
     0
  0
ENDBLK
  5
41
330
2E
100
AcDbEntity
  8
0
100
AcDbBlockEnd
  0
BLOCK
  5
5D
330
42
100
AcDbEntity
  8
0
100
AcDbBlockBegin
  2
overhead
 70
     2
 10
0.0
 20
0.0
 30
0.0
  3
overhead
  1

  0
ATTDEF
  5
43
330
42
100
AcDbEntity
  8
ASHADE
  6
Continuous
 62
     1
100
AcDbText
 10
0.0
 20
-0.1
 30
0.0
 40
0.2
  1

  7
ASHADE
 72
     1
 11
0.0
 21
-0.1
 31
0.0
100
AcDbAttributeDefinition
280
     0
  3
Light Name
  2
SNAME
 70
     0
280
     0
  0
ARC
  5
44
330
42
100
AcDbEntity
  8
ASHADE
  6
Continuous
 62
     7
100
AcDbCircle
 10
0.0
 20
0.0
 30
0.0
 40
0.3
100
AcDbArc
 50
205.6792886194569
 51
334.3207113805431
  0
LINE
  5
45
330
42
100
AcDbEntity
  8
ASHADE
  6
Continuous
 62
     7
100
AcDbLine
 10
-0.2041413561583015
 20
-0.2198324514393848
 30
0.0
 11
-0.2721884748777353
 21
-0.2931099352525131
 31
0.0
  0
LINE
  5
46
330
42
100
AcDbEntity
  8
ASHADE
  6
Continuous
 62
     7
100
AcDbLine
 10
-0.1096591641591904
 20
-0.2792398032442862
 30
0.0
 11
-0.1279356915190555
 21
-0.3257797704516673
 31
0.0
  0
LINE
  5
47
330
42
100
AcDbEntity
  8
ASHADE
  6
Continuous
 62
     7
100
AcDbLine
 10
0.0
 20
-0.2999999999999999
 30
0.0
 11
0.0
 21
-0.4
 31
0.0
  0
LINE
  5
48
330
42
100
AcDbEntity
  8
ASHADE
  6
Continuous
 62
     7
100
AcDbLine
 10
0.1096591641591904
 20
-0.2792398032442862
 30
0.0
 11
0.1279356915190555
 21
-0.3257797704516673
 31
0.0
  0
LINE
  5
49
330
42
100
AcDbEntity
  8
ASHADE
  6
Continuous
 62
     7
100
AcDbLine
 10
0.2041413561583015
 20
-0.2198324514393848
 30
0.0
 11
0.2721884748777353
 21
-0.2931099352525131
 31
0.0
  0
ARC
  5
4A
330
42
100
AcDbEntity
  8
ASHADE
  6
Continuous
 62
     7
100
AcDbCircle
 10
0.0
 20
0.0
 30
0.0
 40
0.3
100
AcDbArc
 50
25.67928861945685
 51
154.3207113805431
  0
LINE
  5
4B
330
42
100
AcDbEntity
  8
ASHADE
  6
Continuous
 62
     7
100
AcDbLine
 10
-0.2703701166919155
 20
0.13
 30
0.0
 11
-0.3154318028072347
 21
0.1516666666666666
 31
0.0
  0
LINE
  5
4C
330
42
100
AcDbEntity
  8
ASHADE
  6
Continuous
 62
     7
100
AcDbLine
 10
-0.2703701166919155
 20
-0.13
 30
0.0
 11
-0.3154318028072347
 21
-0.1516666666666666
 31
0.0
  0
LINE
  5
4D
330
42
100
AcDbEntity
  8
ASHADE
  6
Continuous
 62
     7
100
AcDbLine
 10
-0.2041413561583015
 20
0.2198324514393849
 30
0.0
 11
-0.2721884748777353
 21
0.2931099352525131
 31
0.0
  0
LINE
  5
4E
330
42
100
AcDbEntity
  8
ASHADE
  6
Continuous
 62
     7
100
AcDbLine
 10
-0.1096591641591904
 20
0.2792398032442862
 30
0.0
 11
-0.1279356915190555
 21
0.3257797704516674
 31
0.0
  0
LINE
  5
4F
330
42
100
AcDbEntity
  8
ASHADE
  6
Continuous
 62
     7
100
AcDbLine
 10
0.2703701166919155
 20
-0.13
 30
0.0
 11
0.3154318028072347
 21
-0.1516666666666666
 31
0.0
  0
LINE
  5
50
330
42
100
AcDbEntity
  8
ASHADE
  6
Continuous
 62
     7
100
AcDbLine
 10
0.2703701166919155
 20
0.13
 30
0.0
 11
0.3154318028072347
 21
0.1516666666666666
 31
0.0
  0
LINE
  5
51
330
42
100
AcDbEntity
  8
ASHADE
  6
Continuous
 62
     7
100
AcDbLine
 10
0.0
 20
0.3
 30
0.0
 11
0.0
 21
0.4
 31
0.0
  0
ATTDEF
  5
52
330
42
100
AcDbEntity
  8
ASHADE
  6
Continuous
 62
     7
100
AcDbText
 10
0.0
 20
0.22
 30
0.0
 40
0.01
  1
1
100
AcDbAttributeDefinition
280
     0
  3
Light Intensity
  2
INTENSITY
 70
     1
280
     0
  0
ATTDEF
  5
53
330
42
100
AcDbEntity
  8
ASHADE
  6
Continuous
 62
     7
100
AcDbText
 10
0.0
 20
0.16
 30
0.0
 40
0.01
  1
-1
100
AcDbAttributeDefinition
280
     0
  3
*not used*
  2
BEAMD
 70
     1
280
     0
  0
ATTDEF
  5
54
330
42
100
AcDbEntity
  8
ASHADE
  6
Continuous
 62
     7
100
AcDbText
 10
0.0
 20
0.175
 30
0.0
 40
0.01
  1
-1
100
AcDbAttributeDefinition
280
     0
  3
*not used*
  2
CONED
 70
     1
280
     0
  0
ATTDEF
  5
55
330
42
100
AcDbEntity
  8
ASHADE
  6
Continuous
 62
     7
100
AcDbText
 10
0.0
 20
0.19
 30
0.0
 40
0.01
  1
0
100
AcDbAttributeDefinition
280
     0
  3
Depth Map Size
  2
CONEA
 70
     1
280
     0
  0
ATTDEF
  5
56
330
42
100
AcDbEntity
  8
ASHADE
  6
Continuous
 62
     7
100
AcDbText
 10
0.0
 20
0.2050000000000001
 30
0.0
 40
0.01
  1
1,1,1
100
AcDbAttributeDefinition
280
     0
  3
Light Color (RGB)
  2
COLOR
 70
     1
280
     0
  0
ATTDEF
  5
57
330
42
100
AcDbEntity
  8
ASHADE
  6
Continuous
 62
     7
100
AcDbText
 10
0.0
 20
0.235
 30
0.0
 40
0.01
  1

100
AcDbAttributeDefinition
280
     0
  3
Look-at Z
  2
LAZ
 70
     1
280
     0
  0
ATTDEF
  5
58
330
42
100
AcDbEntity
  8
ASHADE
  6
Continuous
 62
     7
100
AcDbText
 10
0.0
 20
0.25
 30
0.0
 40
0.01
  1

100
AcDbAttributeDefinition
280
     0
  3
Look-at Y
  2
LAY
 70
     1
280
     0
  0
ATTDEF
  5
59
330
42
100
AcDbEntity
  8
ASHADE
  6
Continuous
 62
     7
100
AcDbText
 10
0.0
 20
0.265
 30
0.0
 40
0.01
  1

100
AcDbAttributeDefinition
280
     0
  3
Look-at X
  2
LAX
 70
     1
280
     0
  0
ATTDEF
  5
5A
330
42
100
AcDbEntity
  8
ASHADE
  6
Continuous
 62
     7
100
AcDbText
 10
0.0
 20
0.28
 30
0.0
 40
0.01
  1

100
AcDbAttributeDefinition
280
     0
  3

  2
GNAME
 70
     1
280
     0
  0
LINE
  5
5B
330
42
100
AcDbEntity
  8
ASHADE
  6
Continuous
 62
     7
100
AcDbLine
 10
0.1096591641591904
 20
0.2792398032442862
 30
0.0
 11
0.1279356915190555
 21
0.3257797704516674
 31
0.0
  0
LINE
  5
5C
330
42
100
AcDbEntity
  8
ASHADE
  6
Continuous
 62
     7
100
AcDbLine
 10
0.2041413561583015
 20
0.2198324514393849
 30
0.0
 11
0.2721884748777353
 21
0.2931099352525131
 31
0.0
  0
ENDBLK
  5
5E
330
42
100
AcDbEntity
  8
0
100
AcDbBlockEnd
  0
BLOCK
  5
85
330
5F
100
AcDbEntity
  8
0
100
AcDbBlockBegin
  2
sh_spot
 70
     2
 10
0.0
 20
0.0
 30
0.0
  3
sh_spot
  1

  0
LINE
  5
60
330
5F
100
AcDbEntity
  8
ASHADE
  6
Continuous
 62
     7
100
AcDbLine
 10
0.25
 20
0.26
 30
0.0
 11
-0.25
 21
0.26
 31
0.0
  0
LINE
  5
61
330
5F
100
AcDbEntity
  8
ASHADE
  6
Continuous
 62
     7
100
AcDbLine
 10
-0.25
 20
-0.3399999999999999
 30
0.0
 11
0.25
 21
-0.3399999999999999
 31
0.0
  0
ATTDEF
  5
62
330
5F
100
AcDbEntity
  8
ASHADE
  6
Continuous
 62
     1
100
AcDbText
 10
0.0
 20
-0.1
 30
0.0
 40
0.2
  1

  7
ASHADE
 72
     1
 11
0.0
 21
-0.1
 31
0.0
100
AcDbAttributeDefinition
280
     0
  3
Light Name
  2
SNAME
 70
     0
280
     0
  0
LINE
  5
63
330
5F
100
AcDbEntity
  8
ASHADE
  6
Continuous
 62
     7
100
AcDbLine
 10
-0.25
 20
-0.13
 30
0.0
 11
-0.25
 21
-0.3399999999999999
 31
0.0
  0
LINE
  5
64
330
5F
100
AcDbEntity
  8
ASHADE
  6
Continuous
 62
     7
100
AcDbLine
 10
-0.25
 20
-0.18
 30
0.0
 11
-0.29
 21
-0.18
 31
0.0
  0
LINE
  5
65
330
5F
100
AcDbEntity
  8
ASHADE
  6
Continuous
 62
     7
100
AcDbLine
 10
-0.29
 20
-0.22
 30
0.0
 11
-0.25
 21
-0.22
 31
0.0
  0
LINE
  5
66
330
5F
100
AcDbEntity
  8
ASHADE
  6
Continuous
 62
     7
100
AcDbLine
 10
-0.29
 20
-0.18
 30
0.0
 11
-0.29
 21
-0.22
 31
0.0
  0
LINE
  5
67
330
5F
100
AcDbEntity
  8
ASHADE
  6
Continuous
 62
     7
100
AcDbLine
 10
-0.1045454545454545
 20
0.26
 30
0.0
 11
-0.15
 21
0.46
 31
0.0
  0
LINE
  5
68
330
5F
100
AcDbEntity
  8
ASHADE
  6
Continuous
 62
     7
100
AcDbLine
 10
-0.21
 20
0.26
 30
0.0
 11
-0.301304347826087
 21
0.46
 31
0.0
  0
LINE
  5
69
330
5F
100
AcDbEntity
  8
ASHADE
  6
Continuous
 62
     7
100
AcDbLine
 10
-0.25
 20
0.26
 30
0.0
 11
-0.25
 21
0.13
 31
0.0
  0
LINE
  5
6A
330
5F
100
AcDbEntity
  8
ASHADE
  6
Continuous
 62
     7
100
AcDbLine
 10
-0.25
 20
0.22
 30
0.0
 11
-0.29
 21
0.22
 31
0.0
  0
LINE
  5
6B
330
5F
100
AcDbEntity
  8
ASHADE
  6
Continuous
 62
     7
100
AcDbLine
 10
-0.29
 20
0.1799999999999999
 30
0.0
 11
-0.25
 21
0.1799999999999999
 31
0.0
  0
LINE
  5
6C
330
5F
100
AcDbEntity
  8
ASHADE
  6
Continuous
 62
     7
100
AcDbLine
 10
-0.29
 20
0.22
 30
0.0
 11
-0.29
 21
0.1799999999999999
 31
0.0
  0
ATTDEF
  5
6D
330
5F
100
AcDbEntity
  8
ASHADE
  6
Continuous
 62
     7
100
AcDbText
 10
0.0
 20
-0.24
 30
0.0
 40
0.01
  1
0
100
AcDbAttributeDefinition
280
     0
  3
Depth Map Size
  2
ZSIZE
 70
     1
280
     0
  0
ATTDEF
  5
6E
330
5F
100
AcDbEntity
  8
ASHADE
  6
Continuous
 62
     7
100
AcDbText
 10
0.0
 20
-0.3300000000000001
 30
0.0
 40
0.01
  1
0,0,0
100
AcDbAttributeDefinition
280
     0
  3
Look-from XYZ
  2
LFXYZ
 70
     1
280
     0
  0
ATTDEF
  5
6F
330
5F
100
AcDbEntity
  8
ASHADE
  6
Continuous
 62
     7
100
AcDbText
 10
0.0
 20
-0.315
 30
0.0
 40
0.01
  1
0.0
100
AcDbAttributeDefinition
280
     0
  3
Beam Distribution
  2
BEAMDI
 70
     1
280
     0
  0
ATTDEF
  5
70
330
5F
100
AcDbEntity
  8
ASHADE
  6
Continuous
 62
     7
100
AcDbText
 10
0.0
 20
-0.3
 30
0.0
 40
0.01
  1
0.0
100
AcDbAttributeDefinition
280
     0
  3
Cone Delta
  2
CONEDE
 70
     1
280
     0
  0
ATTDEF
  5
71
330
5F
100
AcDbEntity
  8
ASHADE
  6
Continuous
 62
     7
100
AcDbText
 10
0.0
 20
-0.2850000000000001
 30
0.0
 40
0.01
  1
10.0
100
AcDbAttributeDefinition
280
     0
  3
Cone Angle
  2
CONEAN
 70
     1
280
     0
  0
ATTDEF
  5
72
330
5F
100
AcDbEntity
  8
ASHADE
  6
Continuous
 62
     7
100
AcDbText
 10
0.0
 20
-0.27
 30
0.0
 40
0.01
  1
-1
100
AcDbAttributeDefinition
280
     0
  3
*not used*
  2
BIASMAX
 70
     1
280
     0
  0
ATTDEF
  5
73
330
5F
100
AcDbEntity
  8
ASHADE
  6
Continuous
 62
     7
100
AcDbText
 10
0.0
 20
-0.255
 30
0.0
 40
0.01
  1
-1
100
AcDbAttributeDefinition
280
     0
  3
*not used*
  2
BIASMIN
 70
     1
280
     0
  0
ATTDEF
  5
74
330
5F
100
AcDbEntity
  8
ASHADE
  6
Continuous
 62
     7
100
AcDbText
 10
0.0
 20
-0.225
 30
0.0
 40
0.01
  1
1,1,1
100
AcDbAttributeDefinition
280
     0
  3
Light Color (RGB)
  2
COLOR
 70
     1
280
     0
  0
ATTDEF
  5
75
330
5F
100
AcDbEntity
  8
ASHADE
  6
Continuous
 62
     7
100
AcDbText
 10
0.0
 20
-0.21
 30
0.0
 40
0.01
  1
1
100
AcDbAttributeDefinition
280
     0
  3
Light Intensity
  2
INTENSITY
 70
     1
280
     0
  0
ATTDEF
  5
76
330
5F
100
AcDbEntity
  8
ASHADE
  6
Continuous
 62
     7
100
AcDbText
 10
0.0
 20
-0.15
 30
0.0
 40
0.01
  1

100
AcDbAttributeDefinition
280
     0
  3

  2
GNAME
 70
     1
280
     0
  0
ATTDEF
  5
77
330
5F
100
AcDbEntity
  8
ASHADE
  6
Continuous
 62
     7
100
AcDbText
 10
0.0
 20
-0.195
 30
0.0
 40
0.01
  1

100
AcDbAttributeDefinition
280
     0
  3
Look-at Z
  2
LAZ
 70
     1
280
     0
  0
ATTDEF
  5
78
330
5F
100
AcDbEntity
  8
ASHADE
  6
Continuous
 62
     7
100
AcDbText
 10
0.0
 20
-0.18
 30
0.0
 40
0.01
  1

100
AcDbAttributeDefinition
280
     0
  3
Look-at Y
  2
LAY
 70
     1
280
     0
  0
ATTDEF
  5
79
330
5F
100
AcDbEntity
  8
ASHADE
  6
Continuous
 62
     7
100
AcDbText
 10
0.0
 20
-0.165
 30
0.0
 40
0.01
  1

100
AcDbAttributeDefinition
280
     0
  3
Look-at X
  2
LAX
 70
     1
280
     0
  0
LINE
  5
7A
330
5F
100
AcDbEntity
  8
ASHADE
  6
Continuous
 62
     7
100
AcDbLine
 10
0.25
 20
-0.3399999999999999
 30
0.0
 11
0.25
 21
-0.13
 31
0.0
  0
LINE
  5
7B
330
5F
100
AcDbEntity
  8
ASHADE
  6
Continuous
 62
     7
100
AcDbLine
 10
0.25
 20
-0.18
 30
0.0
 11
0.29
 21
-0.18
 31
0.0
  0
LINE
  5
7C
330
5F
100
AcDbEntity
  8
ASHADE
  6
Continuous
 62
     7
100
AcDbLine
 10
0.29
 20
-0.22
 30
0.0
 11
0.25
 21
-0.22
 31
0.0
  0
LINE
  5
7D
330
5F
100
AcDbEntity
  8
ASHADE
  6
Continuous
 62
     7
100
AcDbLine
 10
0.29
 20
-0.18
 30
0.0
 11
0.29
 21
-0.22
 31
0.0
  0
LINE
  5
7E
330
5F
100
AcDbEntity
  8
ASHADE
  6
Continuous
 62
     7
100
AcDbLine
 10
0.21
 20
0.26
 30
0.0
 11
0.301304347826087
 21
0.46
 31
0.0
  0
LINE
  5
7F
330
5F
100
AcDbEntity
  8
ASHADE
  6
Continuous
 62
     7
100
AcDbLine
 10
0.1045454545454545
 20
0.26
 30
0.0
 11
0.15
 21
0.46
 31
0.0
  0
LINE
  5
80
330
5F
100
AcDbEntity
  8
ASHADE
  6
Continuous
 62
     7
100
AcDbLine
 10
0.0
 20
0.26
 30
0.0
 11
0.0
 21
0.46
 31
0.0
  0
LINE
  5
81
330
5F
100
AcDbEntity
  8
ASHADE
  6
Continuous
 62
     7
100
AcDbLine
 10
0.25
 20
0.13
 30
0.0
 11
0.25
 21
0.26
 31
0.0
  0
LINE
  5
82
330
5F
100
AcDbEntity
  8
ASHADE
  6
Continuous
 62
     7
100
AcDbLine
 10
0.25
 20
0.22
 30
0.0
 11
0.29
 21
0.22
 31
0.0
  0
LINE
  5
83
330
5F
100
AcDbEntity
  8
ASHADE
  6
Continuous
 62
     7
100
AcDbLine
 10
0.29
 20
0.1799999999999999
 30
0.0
 11
0.25
 21
0.1799999999999999
 31
0.0
  0
LINE
  5
84
330
5F
100
AcDbEntity
  8
ASHADE
  6
Continuous
 62
     7
100
AcDbLine
 10
0.29
 20
0.22
 30
0.0
 11
0.29
 21
0.1799999999999999
 31
0.0
  0
ENDBLK
  5
86
330
5F
100
AcDbEntity
  8
0
100
AcDbBlockEnd
  0
BLOCK
  5
92
330
91
100
AcDbEntity
  8
ASHADE
100
AcDbBlockBegin
  2
AVE_RENDER
 70
     0
 10
0.0
 20
0.0
 30
0.0
  3
AVE_RENDER
  1
AVE_RENDER
  0
ENDBLK
  5
93
330
91
100
AcDbEntity
  8
0
100
AcDbBlockEnd
  0
BLOCK
  5
A0
330
9F
100
AcDbEntity
  8
ASHADE
100
AcDbBlockBegin
  2
AVE_GLOBAL
 70
     0
 10
0.0
 20
0.0
 30
0.0
  3
AVE_GLOBAL
  1
AVE_GLOBAL
  0
ENDBLK
  5
A1
330
9F
100
AcDbEntity
  8
0
100
AcDbBlockEnd
  0
ENDSEC
  0
SECTION
  2
ENTITIES
  0
INSERT
  5
94
330
1F
100
AcDbEntity
  8
ASHADE
 62
     1
100
AcDbBlockReference
  2
AVE_RENDER
 10
0.0
 20
0.0
 30
0.0
1001
AVE_RENDER
1002
{
1070
     7
1000
Pref
1070
    30
1070
    20
1070
     1
1070
     0
1000

1070
    10
1070
     1
1070
    10
1040
1.0
1070
     1
1040
0.3
1040
0.7
1040
0.0
1040
10.0
1010
-1.0
1020
-1.0
1030
-1.0
1040
0.3
1070
    49
1070
     0
1070
     0
1010
1.0
1020
1.0
1030
1.0
1040
45.0
1070
     1
1070
     0
1000
WCS
1040
0.0
1070
     0
1040
10.0
1002
}
  0
INSERT
  5
95
330
1F
100
AcDbEntity
  8
ASHADE
 62
     3
100
AcDbBlockReference
  2
AVE_RENDER
 10
0.0
 20
0.0
 30
0.0
1001
AVE_RENDER
1002
{
1070
     0
1000
Full Opt
1070
     0
1070
     1
1070
     1
1070
     1
1070
     0
1070
     0
1070
     0
1070
     1
1070
     1
1040
0.0001
1040
0.0001
1002
}
  0
INSERT
  5
96
330
1F
100
AcDbEntity
  8
ASHADE
 62
     4
100
AcDbBlockReference
  2
AVE_RENDER
 10
0.0
 20
0.0
 30
0.0
1001
AVE_RENDER
1002
{
1070
     0
1000
Quick Opt
1070
     0
1070
     1
1070
     1
1070
     1
1070
     0
1070
     0
1070
     1
1002
}
  0
INSERT
  5
97
330
1F
100
AcDbEntity
  8
ASHADE
 62
     5
100
AcDbBlockReference
  2
AVE_RENDER
 10
0.0
 20
0.0
 30
0.0
1001
AVE_RENDER
1002
{
1070
     1
1000
Scanl Opt
1070
     2
1070
     0
1070
     2
1040
2.0
1040
4.0
1070
     0
1070
     1
1070
     0
1040
0.03
1002
}
  0
INSERT
  5
98
330
1F
100
AcDbEntity
  8
ASHADE
 62
     6
100
AcDbBlockReference
  2
AVE_RENDER
 10
0.0
 20
0.0
 30
0.0
1001
AVE_RENDER
1002
{
1070
     2
1000
Raytr Opt
1070
     2
1070
     0
1070
     2
1040
2.0
1040
4.0
1070
     0
1070
     1
1070
     1
1040
0.03
1070
     3
1040
0.03
1002
}
  0
INSERT
  5
99
330
1F
100
AcDbEntity
  8
ASHADE
 62
     7
100
AcDbBlockReference
  2
AVE_RENDER
 10
0.0
 20
0.0
 30
0.0
1001
AVE_RENDER
1002
{
1070
     0
1000
RFile Opt
1070
     1
1070
   640
1070
   480
1070
 10000
1070
     1
1070
     8
1070
     8
1070
     0
1070
     0
1070
     0
1070
     0
1070
     0
1070
     0
1070
     0
1002
}
  0
INSERT
  5
9A
330
1F
100
AcDbEntity
  8
ASHADE
 62
     8
100
AcDbBlockReference
  2
AVE_RENDER
 10
0.0
 20
0.0
 30
0.0
1001
AVE_RENDER
1002
{
1070
     0
1000
Fog Opt
1070
     0
1070
     0
1040
0.0
1040
1.0
1040
0.0
1040
1.0
1010
0.5
1020
0.5
1030
0.5
1002
}
  0
INSERT
  5
9B
330
1F
100
AcDbEntity
  8
ASHADE
 62
     9
100
AcDbBlockReference
  2
AVE_RENDER
 10
0.0
 20
0.0
 30
0.0
1001
AVE_RENDER
1002
{
1070
     0
1000
BG Opt
1070
     0
1070
     1
1010
0.0
1020
0.0
1030
0.0
1010
1.0
1020
0.0
1030
0.0
1010
0.0
1020
1.0
1030
0.0
1010
0.0
1020
0.0
1030
1.0
1040
0.5
1040
0.33
1040
0.0
1000

1070
     1
1000

1070
     1
1070
     1
1040
1.0
1040
1.0
1040
0.0
1040
0.0
1070
     0
1002
}
  0
INSERT
  5
A2
330
1F
100
AcDbEntity
  8
ASHADE
 62
     1
100
AcDbBlockReference
  2
AVE_GLOBAL
 10
0.0
 20
0.0
 30
0.0
1001
AVE_MATERIAL
1002
{
1000
*GLOBAL*
1000
2
1000
Global finish.
1002
{
1002
}
1002
{
1070
    63
1002
{
1002
{
1010
-1.0
1020
-1.0
1030
-1.0
1002
}
1040
0.1000000014901161
1000

1040
0.0
1002
{
1002
}
1040
0.0
1002
{
1002
}
1040
0.0
1002
}
1002
{
1002
{
1010
-1.0
1020
-1.0
1030
-1.0
1002
}
1040
0.6999999880790711
1000

1040
0.0
1002
{
1002
}
1040
0.0
1002
{
1002
}
1040
0.0
1002
}
1002
{
1002
{
1010
-1.0
1020
-1.0
1030
-1.0
1002
}
1040
0.2000000029802322
1000

1040
0.0
1002
{
1002
}
1040
0.0
1002
{
1002
}
1040
0.0
1002
}
1002
{
1070
     0
1002
{
1070
     1
1002
{
1040
1.0
1040
1.0
1000

1040
0.0
1002
{
1002
}
1040
0.0
1002
{
1002
}
1040
0.0
1002
}
1002
}
1040
1.0
1040
0.0
1040
0.0
1002
}
1002
{
1040
1.0
1040
1.0
1000

1040
0.0
1002
{
1002
}
1040
0.0
1002
{
1002
}
1040
0.0
1002
}
1002
{
1040
0.5
1040
1.0
1000

1040
0.0
1002
{
1002
}
1040
0.0
1002
{
1002
}
1040
0.0
1002
}
1002
{
1070
     0
1040
0.0
1002
{
1002
}
1040
1.0
1002
{
1002
}
1040
0.0
1002
}
1002
{
1040
0.0
1002
{
1002
{
1010
0.0
1020
0.0
1030
0.0
1002
}
1040
1.0
1000

1040
0.0
1002
{
1002
}
1040
0.0
1002
{
1002
}
1040
0.0
1002
}
1002
}
1002
{
1002
{
1070
     1
1002
{
1040
0.0
1040
1.0
1000

1040
0.0
1002
{
1002
}
1040
0.0
1002
{
1002
}
1040
0.0
1002
}
1002
}
1040
0.0
1002
{
1002
}
1010
1.0
1020
0.0
1030
0.0
1010
0.0
1020
1.0
1030
0.0
1010
0.0
1020
0.0
1030
1.0
1070
     0
1002
}
1002
{
1002
{
1040
1.0
1040
1.0
1002
{
1070
     1
1002
{
1040
1.0
1040
1.0
1000

1040
0.0
1002
{
1002
}
1040
0.0
1002
{
1002
}
1040
0.0
1002
}
1002
}
1002
}
1070
     0
1040
0.0
1002
{
1002
}
1002
}
1002
{
1002
}
1002
}
1002
{
1071
        3
1070
     3
1070
     0
1002
{
1070
     2
1070
     0
1070
     0
1040
0.0
1002
}
1070
     0
1070
     2
1002
{
1002
}
1002
}
1002
{
1040
8030.0
1040
190.3000030517578
1040
0.3050000071525574
1040
228.0
1040
545.0
1040
14.0
1040
17.39999961853027
1040
0.4560000002384186
1002
}
1002
}
  0
MESH
  5
F9
330
1F
100
AcDbEntity
  8
OracDecor_panel_moldings
 62
    33
420
 14782295
160
             25856
310
00650000CE0200000C00000013000000020000003C00000006000000020000000000000000408F4000000000005C8FBF000000C0690A34400000000000408F40000000000000D03E00000040170039400C000000130000000A0000003C00000006000000020000000000000000408FC000000000005C8FBF000000E0690A34
310
400000000000408F4000000000005C8FBF000000C0690A34400C00000013000000120000003C00000006000000020000000000000000408FC0000000000000D03E00000040170039400000000000408FC000000000005C8FBF000000E0690A34400C000000130000001A0000003C0000000600000002000000000000000040
310
8FC0000000000000D03E00000040170039400000000000408F40000000000000D03E00000040170039400C00000013000000220000003C00000006000000020000000000000000408F4000000000005C8FBF000000C0690A34400000000000408F4000000000200CD1BF000000001FDA32400C000000130000002A0000003C
310
00000006000000020000000000000000408FC000000000200CD1BF000000001FDA32400000000000408F4000000000200CD1BF000000001FDA32400C00000013000000320000003C00000006000000020000000000000000408FC000000000005C8FBF000000E0690A34400000000000408FC000000000200CD1BF00000000
310
1FDA32400C000000130000003A0000003C00000006000000020000000000000000408F4000000000200CD1BF000000001FDA32400000000000408F4000000000731FE7BF000000C068FE31400C00000013000000420000003C00000006000000020000000000000000408FC000000000731FE7BF000000E068FE3140000000
310
0000408F4000000000731FE7BF000000C068FE31400C000000130000004A0000003C00000006000000020000000000000000408FC000000000200CD1BF000000001FDA32400000000000408FC000000000731FE7BF000000E068FE31400C00000013000000520000003C00000006000000020000000000000000408F400000
310
0000731FE7BF000000C068FE31400000000000408F4000000080594DF4BF00000000994B31400C000000130000005A0000003C00000006000000020000000000000000408FC000000080594DF4BF00000020994B31400000000000408F4000000080594DF4BF00000000994B31400C00000013000000620000003C00000006
310
000000020000000000000000408FC000000000731FE7BF000000E068FE31400000000000408FC000000080594DF4BF00000020994B31400C000000130000006A0000003C00000006000000020000000000000000408F4000000080594DF4BF00000000994B31400000000000408F40000000805362F9BF0000004006953040
310
0C00000013000000720000003C00000006000000020000000000000000408FC0000000805362F9BF00000060069530400000000000408F40000000805362F9BF00000040069530400C000000130000007A0000003C00000006000000020000000000000000408FC000000080594DF4BF00000020994B31400000000000408F
310
C0000000805362F9BF00000060069530400C00000013000000820000003C00000006000000020000000000000000408F40000000805362F9BF00000040069530400000000000408F4000000000A4B1FABF000000803C9C2F400C000000130000008A0000003C00000006000000020000000000000000408FC000000000A4B1
310
FABF000000803C9C2F400000000000408F4000000000A4B1FABF000000803C9C2F400C00000013000000920000003C00000006000000020000000000000000408FC0000000805362F9BF00000060069530400000000000408FC000000000A4B1FABF000000803C9C2F400C000000130000009A0000003C0000000600000002
310
0000000000000000408F4000000000A4B1FABF000000803C9C2F400000000000408F40000000806718F8BF0000008020142E400C00000013000000A20000003C00000006000000020000000000000000408FC0000000806718F8BF0000008020142E400000000000408F40000000806718F8BF0000008020142E400C000000
310
13000000AA0000003C00000006000000020000000000000000408FC000000000A4B1FABF000000803C9C2F400000000000408FC0000000806718F8BF0000008020142E400C00000013000000B20000003C00000006000000020000000000000000408F400000008044D5F1BF00000000D3B82C400000000000408F40000000
310
806718F8BF0000008020142E400C00000013000000BA0000003C00000006000000020000000000000000408FC00000008044D5F1BF00000040D3B82C400000000000408F400000008044D5F1BF00000000D3B82C400C00000013000000C20000003C00000006000000020000000000000000408FC0000000806718F8BF0000
310
008020142E400000000000408FC00000008044D5F1BF00000040D3B82C400C00000013000000CA0000003C00000006000000020000000000000000408F40000000008332E0BF00000080F3CF2A400000000000408F400000008044D5F1BF00000000D3B82C400C00000013000000D20000003C000000060000000200000000
310
00000000408FC0000000008332E0BF000000C0F3CF2A400000000000408F40000000008332E0BF00000080F3CF2A400C00000013000000DA0000003C00000006000000020000000000000000408FC00000008044D5F1BF00000040D3B82C400000000000408FC0000000008332E0BF000000C0F3CF2A400C00000013000000
310
E20000003C00000006000000020000000000000000408F40000000004868C0BF0000008087AD28400000000000408F40000000008332E0BF00000080F3CF2A400C00000013000000EA0000003C00000006000000020000000000000000408FC0000000004868C0BF0000008087AD28400000000000408F40000000004868C0
310
BF0000008087AD28400C00000013000000F20000003C00000006000000020000000000000000408FC0000000008332E0BF000000C0F3CF2A400000000000408FC0000000004868C0BF0000008087AD28400C00000013000000FA0000003C00000006000000020000000000000000408F40000000000000D03E00000000936D
310
26400000000000408F40000000004868C0BF0000008087AD28400C00000013000000020100003C00000006000000020000000000000000408FC0000000000000D03E00000040936D26400000000000408F40000000000000D03E00000000936D26400C000000130000000A0100003C00000006000000020000000000000000
310
408FC0000000004868C0BF0000008087AD28400000000000408FC0000000000000D03E00000040936D26400C00000013000000120100003C00000006000000020000000000000000408F40000000000000D03E000000000040373F0000000000408F40000000000000D03E00000000936D26400C000000130000001A010000
310
3C00000006000000020000000000000000408FC0000000000000D03E000000000040373F0000000000408F40000000000000D03E000000000040373F0C00000013000000220100003C00000006000000020000000000000000408FC0000000000000D03E00000040936D26400000000000408FC0000000000000D03E000000
310
000040373F0C000000130000002A0100003C00000006000000020000000000000000408F40000000000000D03E000000000040373F0000000000408F4000000000D013FEBF00000000B0B1D33F0C00000013000000320100003C00000006000000020000000000000000408FC000000000D013FEBF00000000B0B1D33F0000
310
000000408F4000000000D013FEBF00000000B0B1D33F0C000000130000003A0100003C00000006000000020000000000000000408FC0000000000000D03E000000000040373F0000000000408FC000000000D013FEBF00000000B0B1D33F0C00000013000000420100003C00000006000000020000000000000000408F4000
310
0000805704FFBF00000000B0C6D53F0000000000408F4000000000D013FEBF00000000B0B1D33F0C000000130000004A0100003C00000006000000020000000000000000408FC0000000805704FFBF00000000C0C6D53F0000000000408F40000000805704FFBF00000000B0C6D53F0C00000013000000520100003C000000
310
06000000020000000000000000408FC000000000D013FEBF00000000B0B1D33F0000000000408FC0000000805704FFBF00000000C0C6D53F0C000000130000005A0100003C00000006000000020000000000000000408F40000000805704FFBF00000000B0C6D53F0000000000408F4000000000026BFFBF0000000030C3D9
310
3F0C00000013000000620100003C00000006000000020000000000000000408FC000000000026BFFBF0000000030C3D93F0000000000408F4000000000026BFFBF0000000030C3D93F0C000000130000006A0100003C00000006000000020000000000000000408FC0000000805704FFBF00000000C0C6D53F000000000040
310
8FC000000000026BFFBF0000000030C3D93F0C00000013000000720100003C00000006000000020000000000000000408F4000000000026BFFBF0000000030C3D93F0000000000408F4000000040111A00C0000000009CB9FA3F0C000000130000007A0100003C00000006000000020000000000000000408FC00000004011
310
1A00C000000000A0B9FA3F0000000000408F4000000040111A00C0000000009CB9FA3F0C00000013000000820100003C00000006000000020000000000000000408FC000000000026BFFBF0000000030C3D93F0000000000408FC000000040111A00C000000000A0B9FA3F0C000000130000008A0100003C00000006000000
310
020000000000000000408F4000000040111A00C0000000009CB9FA3F0000000000408F40000000C0E82C00C0000000001C28FB3F0C00000013000000920100003C00000006000000020000000000000000408FC0000000C0E82C00C0000000002028FB3F0000000000408F40000000C0E82C00C0000000001C28FB3F0C0000
310
00130000009A0100003C00000006000000020000000000000000408FC000000040111A00C000000000A0B9FA3F0000000000408FC0000000C0E82C00C0000000002028FB3F0C00000013000000A20100003C00000006000000020000000000000000408F40000000C0E82C00C0000000001C28FB3F0000000000408F400000
310
00C0D15A00C0000000003470FB3F0C00000013000000AA0100003C00000006000000020000000000000000408FC0000000C0D15A00C0000000003870FB3F0000000000408F40000000C0D15A00C0000000003470FB3F0C00000013000000B20100003C00000006000000020000000000000000408FC0000000C0E82C00C000
310
0000002028FB3F0000000000408FC0000000C0D15A00C0000000003870FB3F0C00000013000000BA0100003C00000006000000020000000000000000408F40000000C0D15A00C0000000003470FB3F0000000000408F4000000080748801C000000000F474FC3F0C00000013000000C20100003C0000000600000002000000
310
0000000000408FC000000080748801C000000000F474FC3F0000000000408F4000000080748801C000000000F474FC3F0C00000013000000CA0100003C00000006000000020000000000000000408FC0000000C0D15A00C0000000003870FB3F0000000000408FC000000080748801C000000000F474FC3F0C000000130000
310
00D20100003C00000006000000020000000000000000408F4000000080748801C000000000F474FC3F0000000000408F4000000080D3E403C00000000034D6FE3F0C00000013000000DA0100003C00000006000000020000000000000000408FC000000080D3E403C00000000038D6FE3F0000000000408F4000000080D3E4
310
03C00000000034D6FE3F0C00000013000000E20100003C00000006000000020000000000000000408FC000000080748801C000000000F474FC3F0000000000408FC000000080D3E403C00000000038D6FE3F0C00000013000000EA0100003C00000006000000020000000000000000408F4000000080D3E403C00000000034
310
D6FE3F0000000000408F4000000000852806C00000000056D800400C00000013000000F20100003C00000006000000020000000000000000408FC000000000852806C00000000056D800400000000000408F4000000000852806C00000000056D800400C00000013000000FA0100003C000000060000000200000000000000
310
00408FC000000080D3E403C00000000038D6FE3F0000000000408FC000000000852806C00000000056D800400C00000013000000020200003C00000006000000020000000000000000408F4000000000852806C00000000056D800400000000000408F40000000404D2808C000000000166D02400C000000130000000A0200
310
003C00000006000000020000000000000000408FC0000000404D2808C000000000186D02400000000000408F40000000404D2808C000000000166D02400C00000013000000120200003C00000006000000020000000000000000408FC000000000852806C00000000056D800400000000000408FC0000000404D2808C00000
310
0000186D02400C000000130000001A0200003C00000006000000020000000000000000408F40000000404D2808C000000000166D02400000000000408F4000000040C2E509C000000000E21F04400C00000013000000220200003C00000006000000020000000000000000408FC000000040C2E509C000000000E21F044000
310
00000000408F4000000040C2E509C000000000E21F04400C000000130000002A0200003C00000006000000020000000000000000408FC0000000404D2808C000000000186D02400000000000408FC000000040C2E509C000000000E21F04400C00000013000000320200003C00000006000000020000000000000000408F40
310
00000040C2E509C000000000E21F04400000000000408F40000000009C610BC0000000005EEC05400C000000130000003A0200003C00000006000000020000000000000000408FC0000000009C610BC00000000060EC05400000000000408F40000000009C610BC0000000005EEC05400C00000013000000420200003C0000
310
0006000000020000000000000000408FC000000040C2E509C000000000E21F04400000000000408FC0000000009C610BC00000000060EC05400C000000130000004A0200003C00000006000000020000000000000000408F40000000009C610BC0000000005EEC05400000000000408F40000000C0F19C0CC0000000006ACC
310
07400C00000013000000520200003C00000006000000020000000000000000408FC0000000C0F19C0CC0000000006ACC07400000000000408F40000000C0F19C0CC0000000006ACC07400C000000130000005A0200003C00000006000000020000000000000000408FC0000000009C610BC00000000060EC05400000000000
310
408FC0000000C0F19C0CC0000000006ACC07400C00000013000000620200003C00000006000000020000000000000000408F40000000C0F19C0CC0000000006ACC07400000000000408F400000008075980DC000000000E6B809400C000000130000006A0200003C00000006000000020000000000000000408FC000000080
310
75980DC000000000E6B809400000000000408F400000008075980DC000000000E6B809400C00000013000000720200003C00000006000000020000000000000000408FC0000000C0F19C0CC0000000006ACC07400000000000408FC00000008075980DC000000000E6B809400C000000130000007A0200003C000000060000
310
00020000000000000000408F400000008075980DC000000000E6B809400000000000408F4000000000AB540EC0000000007AAC0B400C00000013000000820200003C00000006000000020000000000000000408FC000000000AB540EC0000000007AAC0B400000000000408F4000000000AB540EC0000000007AAC0B400C00
310
0000130000008A0200003C00000006000000020000000000000000408FC00000008075980DC000000000E6B809400000000000408FC000000000AB540EC0000000007AAC0B400C00000013000000920200003C00000006000000020000000000000000408F40000000005DD30EC0000000006E9B0D400000000000408F4000
310
000000AB540EC0000000007AAC0B400C000000130000009A0200003C00000006000000020000000000000000408FC0000000005DD30EC0000000006E9B0D400000000000408F40000000005DD30EC0000000006E9B0D400C00000013000000A20200003C00000006000000020000000000000000408FC000000000AB540EC0
310
000000007AAC0B400000000000408FC0000000005DD30EC0000000006E9B0D400C00000013000000AA0200003C00000006000000020000000000000000408F4000000080A9150FC00000000026870F400000000000408F40000000005DD30EC0000000006E9B0D400C00000013000000B20200003C00000006000000020000
310
000000000000408FC000000080A9150FC00000000026870F400000000000408F4000000080A9150FC00000000026870F400C00000013000000BA0200003C00000006000000020000000000000000408FC0000000005DD30EC0000000006E9B0D400000000000408FC000000080A9150FC00000000026870F400C0000001300
310
0000C20200003C00000006000000020000000000000000408F4000000000431A0FC000000000E3D610400000000000408F4000000080A9150FC00000000026870F400C00000013000000CA0200003C00000006000000020000000000000000408FC000000000431A0FC000000000E3D610400000000000408F400000000043
310
1A0FC000000000E3D610400C00000013000000D20200003C00000006000000020000000000000000408FC000000080A9150FC00000000026870F400000000000408FC000000000431A0FC000000000E3D610400C00000013000000DA0200003C00000006000000020000000000000000408F4000000080A5D00EC000000000
310
97ED11400000000000408F4000000000431A0FC000000000E3D610400C00000013000000E20200003C00000006000000020000000000000000408FC000000080A5D00EC00000000097ED11400000000000408F4000000080A5D00EC00000000097ED11400C00000013000000EA0200003C0000000600000002000000000000
310
0000408FC000000000431A0FC000000000E3D610400000000000408FC000000080A5D00EC00000000097ED11400C00000013000000F20200003C00000006000000020000000000000000408F4000000000B6360EC000000000890213400000000000408F4000000080A5D00EC00000000097ED11400C00000013000000FA02
310
00003C00000006000000020000000000000000408FC000000000B6360EC000000000890213400000000000408F4000000000B6360EC000000000890213400C00000013000000020300003C00000006000000020000000000000000408FC000000080A5D00EC00000000097ED11400000000000408FC000000000B6360EC000
310
000000890213400C000000130000000A0300003C00000006000000020000000000000000408F400000000040430DC000000000EB1914400000000000408F4000000000B6360EC000000000890213400C00000013000000120300003C00000006000000020000000000000000408FC00000000040430DC000000000EB191440
310
0000000000408F400000000040430DC000000000EB1914400C000000130000001A0300003C00000006000000020000000000000000408FC000000000B6360EC000000000890213400000000000408FC00000000040430DC000000000EB1914400C00000013000000220300003C00000006000000020000000000000000408F
310
400000008098EA0BC000000000513415400000000000408F400000000040430DC000000000EB1914400C000000130000002A0300003C00000006000000020000000000000000408FC00000008098EA0BC000000000513415400000000000408F400000008098EA0BC000000000513415400C00000013000000320300003C00
310
000006000000020000000000000000408FC00000000040430DC000000000EB1914400000000000408FC00000008098EA0BC000000000513415400C000000130000003A0300003C00000006000000020000000000000000408F40000000809E560AC0000000003B3316400000000000408F400000008098EA0BC00000000051
310
3415400C00000013000000420300003C00000006000000020000000000000000408FC0000000809E560AC0000000803B3316400000000000408F40000000809E560AC0000000003B3316400C000000130000004A0300003C00000006000000020000000000000000408FC00000008098EA0BC0000000005134154000000000
310
00408FC0000000809E560AC0000000803B3316400C00000013000000520300003C00000006000000020000000000000000408F40000000809E560AC0000000003B3316400000000000408F4000000040C23809C0000000000AD016400C000000130000005A0300003C00000006000000020000000000000000408FC0000000
310
40C23809C0000000000AD016400000000000408F4000000040C23809C0000000000AD016400C00000013000000620300003C00000006000000020000000000000000408FC0000000809E560AC0000000803B3316400000000000408FC000000040C23809C0000000000AD016400C000000130000006A0300003C0000000600
310
0000020000000000000000408F4000000040C23809C0000000000AD016400000000000408F4000000080051B09C000000000B5F416400C00000013000000720300003C00000006000000020000000000000000408FC000000080051B09C000000000B5F416400000000000408F4000000080051B09C000000000B5F416400C
310
000000130000007A0300003C00000006000000020000000000000000408FC000000040C23809C0000000000AD016400000000000408FC000000080051B09C000000000B5F416400C00000013000000820300003C00000006000000020000000000000000408F4000000080051B09C000000000B5F416400000000000408F40
310
000000802D3A09C000000000141917400C000000130000008A0300003C00000006000000020000000000000000408FC0000000802D3A09C000000000141917400000000000408F40000000802D3A09C000000000141917400C00000013000000920300003C00000006000000020000000000000000408FC000000080051B09
310
C000000000B5F416400000000000408FC0000000802D3A09C000000000141917400C000000130000009A0300003C00000006000000020000000000000000408F40000000802D3A09C000000000141917400000000000408F400000008026EE0EC00000000084D819400C00000013000000A20300003C000000060000000200
310
00000000000000408FC00000008026EE0EC00000008084D819400000000000408F400000008026EE0EC00000000084D819400C00000013000000AA0300003C00000006000000020000000000000000408FC0000000802D3A09C000000000141917400000000000408FC00000008026EE0EC00000008084D819400C00000013
310
000000B20300003C00000006000000020000000000000000408F400000008026EE0EC00000000084D819400000000000408F4000000000D72B0FC0000000007A191A400C00000013000000BA0300003C00000006000000020000000000000000408FC000000000D72B0FC0000000807A191A400000000000408F4000000000
310
D72B0FC0000000007A191A400C00000013000000C20300003C00000006000000020000000000000000408FC00000008026EE0EC00000008084D819400000000000408FC000000000D72B0FC0000000807A191A400C00000013000000CA0300003C00000006000000020000000000000000408F4000000000D72B0FC0000000
310
007A191A400000000000408F400000000045050FC000000000C25E1A400C00000013000000D20300003C00000006000000020000000000000000408FC00000000045050FC000000000C25E1A400000000000408F400000000045050FC000000000C25E1A400C00000013000000DA0300003C00000006000000020000000000
310
000000408FC000000000D72B0FC0000000807A191A400000000000408FC00000000045050FC000000000C25E1A400C00000013000000E20300003C00000006000000020000000000000000408F400000000045050FC000000000C25E1A400000000000408F40000000C09E900CC000000000F22A1C400C00000013000000EA
310
0300003C00000006000000020000000000000000408FC0000000C09E900CC000000080F22A1C400000000000408F40000000C09E900CC000000000F22A1C400C00000013000000F20300003C00000006000000020000000000000000408FC00000000045050FC000000000C25E1A400000000000408FC0000000C09E900CC0
310
00000080F22A1C400C00000013000000FA0300003C00000006000000020000000000000000408F40000000C09E900CC000000000F22A1C400000000000408F4000000000E98E0AC000000000A2ED1D400C00000013000000020400003C00000006000000020000000000000000408FC000000000E98E0AC000000000A2ED1D
310
400000000000408F4000000000E98E0AC000000000A2ED1D400C000000130000000A0400003C00000006000000020000000000000000408FC0000000C09E900CC000000080F22A1C400000000000408FC000000000E98E0AC000000000A2ED1D400C00000013000000120400003C0000000600000002000000000000000040
310
8F4000000000E98E0AC000000000A2ED1D400000000000408F4000000080168308C000000080403520400C000000130000001A0400003C00000006000000020000000000000000408FC000000080168308C0000000C0403520400000000000408F4000000080168308C000000080403520400C00000013000000220400003C
310
00000006000000020000000000000000408FC000000000E98E0AC000000000A2ED1D400000000000408FC000000080168308C0000000C0403520400C000000130000002A0400003C00000006000000020000000000000000408F4000000080168308C000000080403520400000000000408F4000000080076B07C000000080
310
B49F21400C00000013000000320400003C00000006000000020000000000000000408FC000000080076B07C0000000C0B49F21400000000000408F4000000080076B07C000000080B49F21400C000000130000003A0400003C00000006000000020000000000000000408FC000000080168308C0000000C040352040000000
310
0000408FC000000080076B07C0000000C0B49F21400C00000013000000420400003C00000006000000020000000000000000408F4000000080076B07C000000080B49F21400000000000408F4000000080F4D607C000000080D6D022400C000000130000004A0400003C00000006000000020000000000000000408FC00000
310
0080F4D607C0000000C0D6D022400000000000408F4000000080F4D607C000000080D6D022400C00000013000000520400003C00000006000000020000000000000000408FC000000080076B07C0000000C0B49F21400000000000408FC000000080F4D607C0000000C0D6D022400C000000130000005A0400003C00000006
310
000000020000000000000000408F4000000080F4D607C000000080D6D022400000000000408F4000000000BE9D09C000000080EFEF23400C00000013000000620400003C00000006000000020000000000000000408FC000000000BE9D09C000000080EFEF23400000000000408F4000000000BE9D09C000000080EFEF2340
310
0C000000130000006A0400003C00000006000000020000000000000000408FC000000080F4D607C0000000C0D6D022400000000000408FC000000000BE9D09C000000080EFEF23400C00000013000000720400003C00000006000000020000000000000000408F4000000000BE9D09C000000080EFEF23400000000000408F
310
40000000C077F50BC000000000D7CA24400C000000130000007A0400003C00000006000000020000000000000000408FC0000000C077F50BC000000000D7CA24400000000000408F40000000C077F50BC000000000D7CA24400C00000013000000820400003C00000006000000020000000000000000408FC000000000BE9D
310
09C000000080EFEF23400000000000408FC0000000C077F50BC000000000D7CA24400C000000130000008A0400003C00000006000000020000000000000000408F40000000C077F50BC000000000D7CA24400000000000408F40000000000CCD0EC000000000A28625400C00000013000000920400003C0000000600000002
310
0000000000000000408FC0000000000CCD0EC000000040A28625400000000000408F40000000000CCD0EC000000000A28625400C000000130000009A0400003C00000006000000020000000000000000408FC0000000C077F50BC000000000D7CA24400000000000408FC0000000000CCD0EC000000040A28625400C000000
310
13000000A20400003C00000006000000020000000000000000408F40000000000CCD0EC000000000A28625400000000000408F40000000406DA911C0000000805C6F26400C00000013000000AA0400003C00000006000000020000000000000000408FC0000000406DA911C0000000C05C6F26400000000000408F40000000
310
406DA911C0000000805C6F26400C00000013000000B20400003C00000006000000020000000000000000408FC0000000000CCD0EC000000040A28625400000000000408FC0000000406DA911C0000000C05C6F26400C00000013000000BA0400003C00000006000000020000000000000000408F40000000406DA911C00000
310
00805C6F26400000000000408F4000000000F96F14C000000000656627400C00000013000000C20400003C00000006000000020000000000000000408FC000000000F96F14C000000040656627400000000000408F4000000000F96F14C000000000656627400C00000013000000CA0400003C000000060000000200000000
310
00000000408FC0000000406DA911C0000000C05C6F26400000000000408FC000000000F96F14C000000040656627400C00000013000000D20400003C00000006000000020000000000000000408F4000000000F96F14C000000000656627400000000000408F4000000040A1A216C000000000402028400C00000013000000
310
DA0400003C00000006000000020000000000000000408FC000000040A1A216C000000040402028400000000000408F4000000040A1A216C000000000402028400C00000013000000E20400003C00000006000000020000000000000000408FC000000000F96F14C000000040656627400000000000408FC000000040A1A216
310
C000000040402028400C00000013000000EA0400003C00000006000000020000000000000000408F4000000040A1A216C000000000402028400000000000408F400000000008F018C00000008041EE28400C00000013000000F20400003C00000006000000020000000000000000408FC00000000008F018C0000000C041EE
310
28400000000000408F400000000008F018C00000008041EE28400C00000013000000FA0400003C00000006000000020000000000000000408FC000000040A1A216C000000040402028400000000000408FC00000000008F018C0000000C041EE28400C00000013000000020500003C00000006000000020000000000000000
310
408F400000000008F018C00000008041EE28400000000000408F400000000041321BC000000000CED029400C000000130000000A0500003C00000006000000020000000000000000408FC00000000041321BC000000000CED029400000000000408F400000000041321BC000000000CED029400C0000001300000012050000
310
3C00000006000000020000000000000000408FC00000000008F018C0000000C041EE28400000000000408FC00000000041321BC000000000CED029400C000000130000001A0500003C00000006000000020000000000000000408F400000000041321BC000000000CED029400000000000408F40000000C067241DC0000000
310
8067BD2A400C00000013000000220500003C00000006000000020000000000000000408FC0000000C067241DC0000000C067BD2A400000000000408F40000000C067241DC00000008067BD2A400C000000130000002A0500003C00000006000000020000000000000000408FC00000000041321BC000000000CED029400000
310
000000408FC0000000C067241DC0000000C067BD2A400C00000013000000320500003C00000006000000020000000000000000408F40000000C067241DC00000008067BD2A400000000000408F40000000802CC51EC000000000CAB12B400C000000130000003A0500003C00000006000000020000000000000000408FC000
310
0000802CC51EC000000040CAB12B400000000000408F40000000802CC51EC000000000CAB12B400C00000013000000420500003C00000006000000020000000000000000408FC0000000C067241DC0000000C067BD2A400000000000408FC0000000802CC51EC000000040CAB12B400C000000130000004A0500003C000000
310
06000000020000000000000000408F40000000802CC51EC000000000CAB12B400000000000408F40000000401E0C20C000000080C6AB2C400C00000013000000520500003C00000006000000020000000000000000408FC0000000401E0C20C0000000C0C6AB2C400000000000408F40000000401E0C20C000000080C6AB2C
310
400C000000130000005A0500003C00000006000000020000000000000000408FC0000000802CC51EC000000040CAB12B400000000000408FC0000000401E0C20C0000000C0C6AB2C400C00000013000000620500003C00000006000000020000000000000000408F40000000401E0C20C000000080C6AB2C40000000000040
310
8F4000000000A38D20C00000000091A02D400C000000130000006A0500003C00000006000000020000000000000000408FC000000000A38D20C00000000091A02D400000000000408F4000000000A38D20C00000000091A02D400C00000013000000720500003C00000006000000020000000000000000408FC0000000401E
310
0C20C0000000C0C6AB2C400000000000408FC000000000A38D20C00000000091A02D400C000000130000007A0500003C00000006000000020000000000000000408F400000008070E920C000000080A58C2E400000000000408F4000000000A38D20C00000000091A02D400C00000013000000820500003C00000006000000
310
020000000000000000408FC00000008070E920C0000000C0A58C2E400000000000408F400000008070E920C000000080A58C2E400C000000130000008A0500003C00000006000000020000000000000000408FC000000000A38D20C00000000091A02D400000000000408FC00000008070E920C0000000C0A58C2E400C0000
310
0013000000920500003C00000006000000020000000000000000408F4000000000402A21C0000000000AA22F400000000000408F400000008070E920C000000080A58C2E400C000000130000009A0500003C00000006000000020000000000000000408FC000000000402A21C0000000400AA22F400000000000408F400000
310
0000402A21C0000000000AA22F400C00000013000000A20500003C00000006000000020000000000000000408FC00000008070E920C0000000C0A58C2E400000000000408FC000000000402A21C0000000400AA22F400C00000013000000AA0500003C00000006000000020000000000000000408F4000000000402A21C000
310
0000000AA22F400000000000408F4000000020303A21C000000000F09D30400C00000013000000B20500003C00000006000000020000000000000000408FC000000020303A21C000000000F09D30400000000000408F4000000020303A21C000000000F09D30400C00000013000000BA0500003C0000000600000002000000
310
0000000000408FC000000000402A21C0000000400AA22F400000000000408FC000000020303A21C000000000F09D30400C00000013000000C20500003C00000006000000020000000000000000408F4000000040ECE220C000000000735F31400000000000408F4000000020303A21C000000000F09D30400C000000130000
310
00CA0500003C00000006000000020000000000000000408FC000000040ECE220C000000000735F31400000000000408F4000000040ECE220C000000000735F31400C00000013000000D20500003C00000006000000020000000000000000408FC000000020303A21C000000000F09D30400000000000408FC000000040ECE2
310
20C000000000735F31400C00000013000000DA0500003C00000006000000020000000000000000408F40000000A0915920C00000004072F331400000000000408F4000000040ECE220C000000000735F31400C00000013000000E20500003C00000006000000020000000000000000408FC0000000A0915920C00000006072
310
F331400000000000408F40000000A0915920C00000004072F331400C00000013000000EA0500003C00000006000000020000000000000000408FC000000040ECE220C000000000735F31400000000000408FC0000000A0915920C00000006072F331400C00000013000000F20500003C000000060000000200000000000000
310
00408F40000000A0915920C00000004072F331400000000000408F40000000800C461FC0000000405B7532400C00000013000000FA0500003C00000006000000020000000000000000408FC0000000800C461FC0000000405B7532400000000000408F40000000800C461FC0000000405B7532400C00000013000000020600
310
003C00000006000000020000000000000000408FC0000000A0915920C00000006072F331400000000000408FC0000000800C461FC0000000405B7532400C000000130000000A0600003C00000006000000020000000000000000408F40000000001ABE1DC00000008081E132400000000000408F40000000800C461FC00000
310
00405B7532400C00000013000000120600003C00000006000000020000000000000000408FC0000000001ABE1DC00000008081E132400000000000408F40000000001ABE1DC00000008081E132400C000000130000001A0600003C00000006000000020000000000000000408FC0000000800C461FC0000000405B75324000
310
00000000408FC0000000001ABE1DC00000008081E132400C00000013000000220600003C00000006000000020000000000000000408F4000000000E7C41BC0000000C03C5133400000000000408F40000000001ABE1DC00000008081E132400C000000130000002A0600003C00000006000000020000000000000000408FC0
310
00000000E7C41BC0000000C03C5133400000000000408F4000000000E7C41BC0000000C03C5133400C00000013000000320600003C00000006000000020000000000000000408FC0000000001ABE1DC00000008081E132400000000000408FC000000000E7C41BC0000000C03C5133400C000000130000003A0600003C0000
310
0006000000020000000000000000408F4000000000E7C41BC0000000C03C5133400000000000408F4000000000745819C00000004050C033400C00000013000000420600003C00000006000000020000000000000000408FC000000000745819C00000004050C033400000000000408F4000000000745819C00000004050C0
310
33400C000000130000004A0600003C00000006000000020000000000000000408FC000000000E7C41BC0000000C03C5133400000000000408FC000000000745819C00000004050C033400C00000013000000520600003C00000006000000020000000000000000408F40000000C0D87A16C0000000401F2B34400000000000
310
408F4000000000745819C00000004050C033400C000000130000005A0600003C00000006000000020000000000000000408FC0000000C0D87A16C0000000601F2B34400000000000408F40000000C0D87A16C0000000401F2B34400C00000013000000620600003C00000006000000020000000000000000408FC000000000
310
745819C00000004050C033400000000000408FC0000000C0D87A16C0000000601F2B34400C000000130000006A0600003C00000006000000020000000000000000408F40000000C0D87A16C0000000401F2B34400000000000408F4000000000694813C000000040668B34400C00000013000000720600003C000000060000
310
00020000000000000000408FC000000000694813C000000060668B34400000000000408F4000000000694813C000000040668B34400C000000130000007A0600003C00000006000000020000000000000000408FC0000000C0D87A16C0000000601F2B34400000000000408FC000000000694813C000000060668B34400C00
310
000013000000820600003C00000006000000020000000000000000408F40000000809BAD10C0000000C003CD34400000000000408F4000000000694813C000000040668B34400C000000130000008A0600003C00000006000000020000000000000000408FC0000000809BAD10C0000000A003CD34400000000000408F4000
310
0000809BAD10C0000000C003CD34400C00000013000000920600003C00000006000000020000000000000000408FC000000000694813C000000060668B34400000000000408FC0000000809BAD10C0000000A003CD34400C000000130000009A0600003C00000006000000020000000000000000408F4000000040A29610C0
310
000000C026D134400000000000408F40000000809BAD10C0000000C003CD34400C00000013000000A20600003C00000006000000020000000000000000408FC000000040A29610C0000000E026D134400000000000408F4000000040A29610C0000000C026D134400C00000013000000AA0600003C00000006000000020000
310
000000000000408FC0000000809BAD10C0000000A003CD34400000000000408FC000000040A29610C0000000E026D134400C00000013000000B20600003C00000006000000020000000000000000408F4000000040EE8B10C000000040B4D734400000000000408F4000000040A29610C0000000C026D134400C0000001300
310
0000BA0600003C00000006000000020000000000000000408FC000000040EE8B10C000000060B4D734400000000000408F4000000040EE8B10C000000040B4D734400C00000013000000C20600003C00000006000000020000000000000000408FC000000040A29610C0000000E026D134400000000000408FC000000040EE
310
8B10C000000060B4D734400C00000013000000CA0600003C00000006000000020000000000000000408F4000000040EE8B10C000000040B4D734400000000000408F4000000000CF1F10C0000000C020D435400C00000013000000D20600003C00000006000000020000000000000000408FC000000000CF1F10C0000000C0
310
20D435400000000000408F4000000000CF1F10C0000000C020D435400C00000013000000DA0600003C00000006000000020000000000000000408FC000000040EE8B10C000000060B4D734400000000000408FC000000000CF1F10C0000000C020D435400C00000013000000E20600003C0000000600000002000000000000
310
0000408F4000000000CF1F10C0000000C020D435400000000000408F40000000C0280710C0000000A034E235400C00000013000000EA0600003C00000006000000020000000000000000408FC0000000C0280710C0000000A034E235400000000000408F40000000C0280710C0000000A034E235400C00000013000000F206
310
00003C00000006000000020000000000000000408FC000000000CF1F10C0000000C020D435400000000000408FC0000000C0280710C0000000A034E235400C00000013000000FA0600003C00000006000000020000000000000000408F40000000C0280710C0000000A034E235400000000000408F400000008086A50FC000
310
0000E03DEA35400C00000013000000020700003C00000006000000020000000000000000408FC00000008086A50FC0000000E03DEA35400000000000408F400000008086A50FC0000000E03DEA35400C000000130000000A0700003C00000006000000020000000000000000408FC0000000C0280710C0000000A034E23540
310
0000000000408FC00000008086A50FC0000000E03DEA35400C00000013000000120700003C00000006000000020000000000000000408F400000008086A50FC0000000E03DEA35400000000000408F400000008052D80CC0000000E0540836400C000000130000001A0700003C00000006000000020000000000000000408F
310
C00000008052D80CC0000000E0540836400000000000408F400000008052D80CC0000000E0540836400C00000013000000220700003C00000006000000020000000000000000408FC00000008086A50FC0000000E03DEA35400000000000408FC00000008052D80CC0000000E0540836400C000000130000002A0700003C00
310
000006000000020000000000000000408F400000008052D80CC0000000E0540836400000000000408F4000000040C82F0AC000000080F43436400C00000013000000320700003C00000006000000020000000000000000408FC000000040C82F0AC000000080F43436400000000000408F4000000040C82F0AC000000080F4
310
3436400C000000130000003A0700003C00000006000000020000000000000000408FC00000008052D80CC0000000E0540836400000000000408FC000000040C82F0AC000000080F43436400C00000013000000420700003C00000006000000020000000000000000408F4000000040C82F0AC000000080F434364000000000
310
00408F40000000C0FF9E07C0000000C0357236400C000000130000004A0700003C00000006000000020000000000000000408FC0000000C0FF9E07C0000000C0357236400000000000408F40000000C0FF9E07C0000000C0357236400C00000013000000520700003C00000006000000020000000000000000408FC0000000
310
40C82F0AC000000080F43436400000000000408FC0000000C0FF9E07C0000000C0357236400C000000130000005A0700003C00000006000000020000000000000000408F40000000C0FF9E07C0000000C0357236400000000000408F400000008082C405C00000000007AD36400C00000013000000620700003C0000000600
310
0000020000000000000000408FC00000008082C405C00000000007AD36400000000000408F400000008082C405C00000000007AD36400C000000130000006A0700003C00000006000000020000000000000000408FC0000000C0FF9E07C0000000C0357236400000000000408FC00000008082C405C00000000007AD36400C
310
00000013000000720700003C00000006000000020000000000000000408F400000008082C405C00000000007AD36400000000000408F4000000080F16C03C000000080A40B37400C000000130000007A0700003C00000006000000020000000000000000408FC000000080F16C03C000000080A40B37400000000000408F40
310
00000080F16C03C000000080A40B37400C00000013000000820700003C00000006000000020000000000000000408FC00000008082C405C00000000007AD36400000000000408FC000000080F16C03C000000080A40B37400C000000130000008A0700003C00000006000000020000000000000000408F4000000080F16C03
310
C000000080A40B37400000000000408F4000000080535301C000000040D17C37400C00000013000000920700003C00000006000000020000000000000000408FC000000080535301C000000040D17C37400000000000408F4000000080535301C000000040D17C37400C000000130000009A0700003C000000060000000200
310
00000000000000408FC000000080F16C03C000000080A40B37400000000000408FC000000080535301C000000040D17C37400C00000013000000A20700003C00000006000000020000000000000000408F4000000080535301C000000040D17C37400000000000408F4000000000FA2BFFBF000000002BFB37400C00000013
310
000000AA0700003C00000006000000020000000000000000408FC000000000FA2BFFBF000000002BFB37400000000000408F4000000000FA2BFFBF000000002BFB37400C00000013000000B20700003C00000006000000020000000000000000408FC000000080535301C000000040D17C37400000000000408FC000000000
310
FA2BFFBF000000002BFB37400C00000013000000BA0700003C00000006000000020000000000000000408F4000000000FA2BFFBF000000002BFB37400000000000408F400000000031A3FCBF000000A0B17F38400C00000013000000C20700003C00000006000000020000000000000000408FC00000000031A3FCBF000000
310
A0B17F38400000000000408F400000000031A3FCBF000000A0B17F38400C00000013000000CA0700003C00000006000000020000000000000000408FC000000000FA2BFFBF000000002BFB37400000000000408FC00000000031A3FCBF000000A0B17F38400C00000013000000D20700003C00000006000000020000000000
310
000000408F400000000031A3FCBF000000A0B17F38400000000000408F40000000806258FBBF0000008092E938400C00000013000000DA0700003C00000006000000020000000000000000408FC0000000806258FBBF0000008092E938400000000000408F40000000806258FBBF0000008092E938400C00000013000000E2
310
0700003C00000006000000020000000000000000408FC00000000031A3FCBF000000A0B17F38400000000000408FC0000000806258FBBF0000008092E938400C00000013000000EA0700003C00000006000000020000000000000000408F40000000806258FBBF0000008092E938400000000000408F400000008010D1FABF
310
000000A0A0F938400C00000013000000F20700003C00000006000000020000000000000000408FC00000008010D1FABF000000A0A0F938400000000000408F400000008010D1FABF000000A0A0F938400C00000013000000FA0700003C00000006000000020000000000000000408FC0000000806258FBBF0000008092E938
310
400000000000408FC00000008010D1FABF000000A0A0F938400C00000013000000020800003C00000006000000020000000000000000408F400000008010D1FABF000000A0A0F938400000000000408F4000000000C3C1F9BF00000040170039400C000000130000000A0800003C0000000600000002000000000000000040
310
8FC000000000C3C1F9BF00000040170039400000000000408F4000000000C3C1F9BF00000040170039400C00000013000000120800003C00000006000000020000000000000000408FC00000008010D1FABF000000A0A0F938400000000000408FC000000000C3C1F9BF00000040170039400C000000130000001A0800003C
310
00000006000000020000000000000000408F4000000000C3C1F9BF00000040170039400000000000408F40000000000000D03E00000040170039400C00000013000000220800003C00000006000000020000000000000000408FC0000000000000D03E00000040170039400000000000408FC000000000C3C1F9BF00000040
310
170039400C000000130000002A0800003C00000006000000020000000000000000408FC000000000005C8FBF000000E0690A34400000000000408FC000000040EE8B10C000000060B4D734400C00000013000000320800003C00000006000000020000000000000000408FC0000000000000D03E000000000040373F000000
310
0000408FC0000000805704FFBF00000000C0C6D53F0C000000130000003A0800003C00000006000000020000000000000000408FC0000000000000D03E000000000040373F0000000000408FC000000000026BFFBF0000000030C3D93F0C00000013000000420800003C00000006000000020000000000000000408FC00000
310
00000000D03E000000000040373F0000000000408FC000000040111A00C000000000A0B9FA3F0C000000130000004A0800003C00000006000000020000000000000000408FC0000000000000D03E000000000040373F0000000000408FC0000000C0E82C00C0000000002028FB3F0C00000013000000520800003C00000006
310
000000020000000000000000408FC0000000000000D03E00000040936D26400000000000408FC0000000C0E82C00C0000000002028FB3F0C000000130000005A0800003C00000006000000020000000000000000408FC0000000000000D03E00000040936D26400000000000408FC0000000C0D15A00C0000000003870FB3F
310
0C00000013000000620800003C00000006000000020000000000000000408FC000000080748801C000000000F474FC3F0000000000408FC0000000809E560AC0000000803B3316400C000000130000006A0800003C00000006000000020000000000000000408FC0000000C0D15A00C0000000003870FB3F0000000000408F
310
C000000040C23809C0000000000AD016400C00000013000000720800003C00000006000000020000000000000000408FC000000080D3E403C00000000038D6FE3F0000000000408FC00000008098EA0BC000000000513415400C000000130000007A0800003C00000006000000020000000000000000408FC0000000008528
310
06C00000000056D800400000000000408FC00000000040430DC000000000EB1914400C00000013000000820800003C00000006000000020000000000000000408FC0000000404D2808C000000000186D02400000000000408FC000000000B6360EC000000000890213400C000000130000008A0800003C0000000600000002
310
0000000000000000408FC000000040C2E509C000000000E21F04400000000000408FC000000080A5D00EC00000000097ED11400C00000013000000920800003C00000006000000020000000000000000408FC0000000009C610BC00000000060EC05400000000000408FC000000000431A0FC000000000E3D610400C000000
310
130000009A0800003C00000006000000020000000000000000408FC0000000C0F19C0CC0000000006ACC07400000000000408FC000000080A9150FC00000000026870F400C00000013000000A20800003C00000006000000020000000000000000408FC00000008075980DC000000000E6B809400000000000408FC0000000
310
005DD30EC0000000006E9B0D400C00000013000000AA0800003C00000006000000020000000000000000408FC0000000000000D03E00000040936D26400000000000408FC000000080051B09C000000000B5F416400C00000013000000B20800003C00000006000000020000000000000000408FC0000000000000D03E0000
310
0040936D26400000000000408FC0000000802D3A09C000000000141917400C00000013000000BA0800003C00000006000000020000000000000000408FC00000008026EE0EC00000008084D819400000000000408FC00000000045050FC000000000C25E1A400C00000013000000C20800003C000000060000000200000000
310
00000000408FC0000000802D3A09C000000000141917400000000000408FC0000000C09E900CC000000080F22A1C400C00000013000000CA0800003C00000006000000020000000000000000408FC0000000802D3A09C000000000141917400000000000408FC000000000E98E0AC000000000A2ED1D400C00000013000000
310
D20800003C00000006000000020000000000000000408FC0000000000000D03E00000040936D26400000000000408FC000000080168308C0000000C0403520400C00000013000000DA0800003C00000006000000020000000000000000408FC0000000000000D03E00000040936D26400000000000408FC000000080076B07
310
C0000000C0B49F21400C00000013000000E20800003C00000006000000020000000000000000408FC0000000000000D03E00000040936D26400000000000408FC000000080F4D607C0000000C0D6D022400C00000013000000EA0800003C00000006000000020000000000000000408FC0000000000000D03E00000040936D
310
26400000000000408FC000000000BE9D09C000000080EFEF23400C00000013000000F20800003C00000006000000020000000000000000408FC000000000005C8FBF000000E0690A34400000000000408FC000000040A29610C0000000E026D134400C00000013000000FA0800003C00000006000000020000000000000000
310
408FC000000000005C8FBF000000E0690A34400000000000408FC0000000809BAD10C0000000A003CD34400C00000013000000020900003C00000006000000020000000000000000408FC000000000731FE7BF000000E068FE31400000000000408FC0000000C0D87A16C0000000601F2B34400C000000130000000A090000
310
3C00000006000000020000000000000000408FC000000000200CD1BF000000001FDA32400000000000408FC000000000694813C000000060668B34400C00000013000000120900003C00000006000000020000000000000000408FC000000000731FE7BF000000E068FE31400000000000408FC000000000E7C41BC0000000
310
C03C5133400C000000130000001A0900003C00000006000000020000000000000000408FC000000000731FE7BF000000E068FE31400000000000408FC000000000745819C00000004050C033400C00000013000000220900003C00000006000000020000000000000000408FC000000080594DF4BF00000020994B31400000
310
000000408FC0000000001ABE1DC00000008081E132400C000000130000002A0900003C00000006000000020000000000000000408FC000000080594DF4BF00000020994B31400000000000408FC0000000A0915920C00000006072F331400C00000013000000320900003C00000006000000020000000000000000408FC000
310
000080594DF4BF00000020994B31400000000000408FC0000000800C461FC0000000405B7532400C000000130000003A0900003C00000006000000020000000000000000408FC0000000805362F9BF00000060069530400000000000408FC000000040ECE220C000000000735F31400C00000013000000420900003C000000
310
06000000020000000000000000408FC0000000004868C0BF0000008087AD28400000000000408FC0000000C077F50BC000000000D7CA24400C000000130000004A0900003C00000006000000020000000000000000408FC0000000004868C0BF0000008087AD28400000000000408FC0000000000CCD0EC000000040A28625
310
400C00000013000000520900003C00000006000000020000000000000000408FC0000000008332E0BF000000C0F3CF2A400000000000408FC0000000406DA911C0000000C05C6F26400C000000130000005A0900003C00000006000000020000000000000000408FC00000008044D5F1BF00000040D3B82C40000000000040
310
8FC000000000F96F14C000000040656627400C00000013000000620900003C00000006000000020000000000000000408FC00000008044D5F1BF00000040D3B82C400000000000408FC000000040A1A216C000000040402028400C000000130000006A0900003C00000006000000020000000000000000408FC00000008044
310
D5F1BF00000040D3B82C400000000000408FC00000000008F018C0000000C041EE28400C00000013000000720900003C00000006000000020000000000000000408FC0000000805362F9BF00000060069530400000000000408FC000000000402A21C0000000400AA22F400C000000130000007A0900003C00000006000000
310
020000000000000000408FC0000000805362F9BF00000060069530400000000000408FC000000020303A21C000000000F09D30400C00000013000000820900003C00000006000000020000000000000000408FC000000000A4B1FABF000000803C9C2F400000000000408FC00000008070E920C0000000C0A58C2E400C0000
310
00130000008A0900003C00000006000000020000000000000000408FC0000000806718F8BF0000008020142E400000000000408FC00000000041321BC000000000CED029400C00000013000000920900003C00000006000000020000000000000000408FC0000000806718F8BF0000008020142E400000000000408FC00000
310
00C067241DC0000000C067BD2A400C000000130000009A0900003C00000006000000020000000000000000408FC0000000806718F8BF0000008020142E400000000000408FC0000000802CC51EC000000040CAB12B400C00000013000000A20900003C00000006000000020000000000000000408FC000000000A4B1FABF00
310
0000803C9C2F400000000000408FC0000000401E0C20C0000000C0C6AB2C400C00000013000000AA0900003C00000006000000020000000000000000408FC000000000A4B1FABF000000803C9C2F400000000000408FC000000000A38D20C00000000091A02D400C00000013000000B20900003C0000000600000002000000
310
0000000000408F4000000000005C8FBF000000C0690A34400000000000408F4000000040EE8B10C000000040B4D734400C00000013000000BA0900003C00000006000000020000000000000000408F40000000000000D03E000000000040373F0000000000408F4000000000026BFFBF0000000030C3D93F0C000000130000
310
00C20900003C00000006000000020000000000000000408F40000000000000D03E000000000040373F0000000000408F40000000805704FFBF00000000B0C6D53F0C00000013000000CA0900003C00000006000000020000000000000000408F40000000000000D03E000000000040373F0000000000408F4000000040111A
310
00C0000000009CB9FA3F0C00000013000000D20900003C00000006000000020000000000000000408F40000000000000D03E000000000040373F0000000000408F40000000C0E82C00C0000000001C28FB3F0C00000013000000DA0900003C00000006000000020000000000000000408F40000000C0E82C00C0000000001C
310
28FB3F0000000000408F40000000000000D03E00000000936D26400C00000013000000E20900003C00000006000000020000000000000000408F40000000000000D03E00000000936D26400000000000408F40000000C0D15A00C0000000003470FB3F0C00000013000000EA0900003C000000060000000200000000000000
310
00408F40000000C0D15A00C0000000003470FB3F0000000000408F4000000040C23809C0000000000AD016400C00000013000000F20900003C00000006000000020000000000000000408F4000000080748801C000000000F474FC3F0000000000408F40000000809E560AC0000000003B3316400C00000013000000FA0900
310
003C00000006000000020000000000000000408F4000000080D3E403C00000000034D6FE3F0000000000408F400000008098EA0BC000000000513415400C00000013000000020A00003C00000006000000020000000000000000408F4000000000852806C00000000056D800400000000000408F400000000040430DC00000
310
0000EB1914400C000000130000000A0A00003C00000006000000020000000000000000408F40000000404D2808C000000000166D02400000000000408F4000000000B6360EC000000000890213400C00000013000000120A00003C00000006000000020000000000000000408F4000000040C2E509C000000000E21F044000
310
00000000408F4000000080A5D00EC00000000097ED11400C000000130000001A0A00003C00000006000000020000000000000000408F40000000009C610BC0000000005EEC05400000000000408F4000000000431A0FC000000000E3D610400C00000013000000220A00003C00000006000000020000000000000000408F40
310
000000C0F19C0CC0000000006ACC07400000000000408F4000000080A9150FC00000000026870F400C000000130000002A0A00003C00000006000000020000000000000000408F400000008075980DC000000000E6B809400000000000408F40000000005DD30EC0000000006E9B0D400C00000013000000320A00003C0000
310
0006000000020000000000000000408F40000000000000D03E00000000936D26400000000000408F4000000080051B09C000000000B5F416400C000000130000003A0A00003C00000006000000020000000000000000408F40000000000000D03E00000000936D26400000000000408F40000000802D3A09C0000000001419
310
17400C00000013000000420A00003C00000006000000020000000000000000408F400000008026EE0EC00000000084D819400000000000408F400000000045050FC000000000C25E1A400C000000130000004A0A00003C00000006000000020000000000000000408F40000000802D3A09C000000000141917400000000000
310
408F40000000C09E900CC000000000F22A1C400C00000013000000520A00003C00000006000000020000000000000000408F40000000802D3A09C000000000141917400000000000408F4000000000E98E0AC000000000A2ED1D400C000000130000005A0A00003C00000006000000020000000000000000408F4000000000
310
0000D03E00000000936D26400000000000408F4000000080168308C000000080403520400C00000013000000620A00003C00000006000000020000000000000000408F40000000000000D03E00000000936D26400000000000408F4000000080076B07C000000080B49F21400C000000130000006A0A00003C000000060000
310
00020000000000000000408F40000000000000D03E00000000936D26400000000000408F4000000080F4D607C000000080D6D022400C00000013000000720A00003C00000006000000020000000000000000408F40000000000000D03E00000000936D26400000000000408F4000000000BE9D09C000000080EFEF23400C00
310
0000130000007A0A00003C00000006000000020000000000000000408F4000000000005C8FBF000000C0690A34400000000000408F4000000040A29610C0000000C026D134400C00000013000000820A00003C00000006000000020000000000000000408F4000000000005C8FBF000000C0690A34400000000000408F4000
310
0000809BAD10C0000000C003CD34400C000000130000008A0A00003C00000006000000020000000000000000408F4000000000200CD1BF000000001FDA32400000000000408F4000000000694813C000000040668B34400C00000013000000920A00003C00000006000000020000000000000000408F4000000000731FE7BF
310
000000C068FE31400000000000408F40000000C0D87A16C0000000401F2B34400C000000130000009A0A00003C00000006000000020000000000000000408F4000000000731FE7BF000000C068FE31400000000000408F4000000000745819C00000004050C033400C00000013000000A20A00003C00000006000000020000
310
000000000000408F4000000000731FE7BF000000C068FE31400000000000408F4000000000E7C41BC0000000C03C5133400C00000013000000AA0A00003C00000006000000020000000000000000408F4000000080594DF4BF00000000994B31400000000000408F40000000001ABE1DC00000008081E132400C0000001300
310
0000B20A00003C00000006000000020000000000000000408F4000000080594DF4BF00000000994B31400000000000408F40000000800C461FC0000000405B7532400C00000013000000BA0A00003C00000006000000020000000000000000408F4000000080594DF4BF00000000994B31400000000000408F40000000A091
310
5920C00000004072F331400C00000013000000C20A00003C00000006000000020000000000000000408F40000000805362F9BF00000040069530400000000000408F4000000040ECE220C000000000735F31400C00000013000000CA0A00003C00000006000000020000000000000000408F40000000004868C0BF00000080
310
87AD28400000000000408F40000000C077F50BC000000000D7CA24400C00000013000000D20A00003C00000006000000020000000000000000408F40000000004868C0BF0000008087AD28400000000000408F40000000000CCD0EC000000000A28625400C00000013000000DA0A00003C0000000600000002000000000000
310
0000408F40000000008332E0BF00000080F3CF2A400000000000408F40000000406DA911C0000000805C6F26400C00000013000000E20A00003C00000006000000020000000000000000408F400000008044D5F1BF00000000D3B82C400000000000408F4000000000F96F14C000000000656627400C00000013000000EA0A
310
00003C00000006000000020000000000000000408F400000008044D5F1BF00000000D3B82C400000000000408F4000000040A1A216C000000000402028400C00000013000000F20A00003C00000006000000020000000000000000408F400000008044D5F1BF00000000D3B82C400000000000408F400000000008F018C000
310
00008041EE28400C00000013000000FA0A00003C00000006000000020000000000000000408F40000000805362F9BF00000040069530400000000000408F4000000020303A21C000000000F09D30400C00000013000000020B00003C00000006000000020000000000000000408F40000000805362F9BF0000004006953040
310
0000000000408F4000000000402A21C0000000000AA22F400C000000130000000A0B00003C00000006000000020000000000000000408F4000000000A4B1FABF000000803C9C2F400000000000408F400000008070E920C000000080A58C2E400C00000013000000120B00003C00000006000000020000000000000000408F
310
40000000806718F8BF0000008020142E400000000000408F400000000041321BC000000000CED029400C000000130000001A0B00003C00000006000000020000000000000000408F40000000806718F8BF0000008020142E400000000000408F40000000C067241DC00000008067BD2A400C00000013000000220B00003C00
310
000006000000020000000000000000408F40000000806718F8BF0000008020142E400000000000408F40000000802CC51EC000000000CAB12B400C000000130000002A0B00003C00000006000000020000000000000000408F4000000000A4B1FABF000000803C9C2F400000000000408F40000000401E0C20C000000080C6
310
AB2C400C00000013000000320B00003C00000006000000020000000000000000408F4000000000A4B1FABF000000803C9C2F400000000000408F4000000000A38D20C00000000091A02D40
100
AcDbSubDMesh
 71
     2
 72
     0
 91
        0
 92
      174
 10
-1000.0
 20
0.0000038146972656
 30
25.0003547668457
 10
-1000.0
 20
-0.0153121948242188
 30
20.04067802429199
 10
-1000.0
 20
-0.2663650512695312
 30
18.85203552246094
 10
-1000.0
 20
-0.7225890159606934
 30
17.99378776550293
 10
-1000.0
 20
-1.268884181976318
 30
17.29530525207519
 10
-1000.0
 20
-1.586505413055419
 30
16.58212852478027
 10
-1000.0
 20
-1.66836929321289
 30
15.80514907836914
 10
-1000.0
 20
-1.505958080291748
 30
15.03931045532226
 10
-1000.0
 20
-1.114567279815673
 30
14.36098670959473
 10
-1000.0
 20
-0.5061659812927246
 30
13.40615653991699
 10
-1000.0
 20
-0.1281824111938477
 30
12.33892440795898
 10
-1000.0
 20
0.0000038146972656
 30
11.21401405334472
 10
-1000.0
 20
0.0000038146972656
 30
0.0003547668457031
 10
-1000.0
 20
-1.879837036132812
 30
0.3077201843261719
 10
-1000.0
 20
-1.938560009002685
 30
0.3402557373046875
 10
-1000.0
 20
-1.963624954223632
 30
0.4025382995605469
 10
-1000.0
 20
-2.012728214263916
 30
1.670318603515625
 10
-1000.0
 20
-2.021928310394287
 30
1.697296142578125
 10
-1000.0
 20
-2.044345378875732
 30
1.714897155761718
 10
-1000.0
 20
-2.191628456115722
 30
1.778553009033203
 10
-1000.0
 20
-2.486731529235839
 30
1.927299499511718
 10
-1000.0
 20
-2.769784927368164
 30
2.105632781982421
 10
-1000.0
 20
-3.019678592681884
 30
2.303268432617187
 10
-1000.0
 20
-3.237186908721923
 30
2.515567779541015
 10
-1000.0
 20
-3.422660827636718
 30
2.74041748046875
 10
-1000.0
 20
-3.576632976531982
 30
2.974811553955078
 10
-1000.0
 20
-3.699442863464355
 30
3.215282440185546
 10
-1000.0
 20
-3.79134178161621
 30
3.459217071533203
 10
-1000.0
 20
-3.853204727172851
 30
3.700893402099609
 10
-1000.0
 20
-3.885577201843261
 30
3.940990447998046
 10
-1000.0
 20
-3.887823104858398
 30
4.209850311279296
 10
-1000.0
 20
-3.85187816619873
 30
4.482021331787109
 10
-1000.0
 20
-3.776714324951171
 30
4.75247573852539
 10
-1000.0
 20
-3.6578369140625
 30
5.025310516357421
 10
-1000.0
 20
-3.489548683166503
 30
5.301090240478515
 10
-1000.0
 20
-3.2922945022583
 30
5.550031661987304
 10
-1000.0
 20
-3.152714252471923
 30
5.703163146972656
 10
-1000.0
 20
-3.13819408416748
 30
5.738971710205078
 10
-1000.0
 20
-3.153407096862792
 30
5.774490356445312
 10
-1000.0
 20
-3.866284370422363
 30
6.461442947387695
 10
-1000.0
 20
-3.896406173706054
 30
6.524881362915039
 10
-1000.0
 20
-3.877573013305664
 30
6.592536926269531
 10
-1000.0
 20
-3.570615291595458
 30
7.041940689086914
 10
-1000.0
 20
-3.319780349731445
 30
7.482063293457031
 10
-1000.0
 20
-3.064007759094238
 30
8.104009628295898
 10
-1000.0
 20
-2.927260398864746
 30
8.811925888061523
 10
-1000.0
 20
-2.979958534240722
 30
9.407888412475585
 10
-1000.0
 20
-3.202022552490234
 30
9.968624114990234
 10
-1000.0
 20
-3.494857311248779
 30
10.39617156982422
 10
-1000.0
 20
-3.850120544433593
 30
10.76295661926269
 10
-1000.0
 20
-4.415455818176269
 30
11.21750450134277
 10
-1000.0
 20
-5.10934829711914
 30
11.69999122619629
 10
-1000.0
 20
-5.658818244934082
 30
12.06299018859863
 10
-1000.0
 20
-6.234405517578125
 30
12.46534538269043
 10
-1000.0
 20
-6.799076080322265
 30
12.90782165527344
 10
-1000.0
 20
-7.285552024841308
 30
13.36993217468261
 10
-1000.0
 20
-7.69255256652832
 30
13.84724617004394
 10
-1000.0
 20
-8.02366828918457
 30
14.33550071716308
 10
-1000.0
 20
-8.276634216308593
 30
14.81360626220703
 10
-1000.0
 20
-8.455936431884765
 30
15.27470207214355
 10
-1000.0
 20
-8.58251953125
 30
15.81648445129394
 10
-1000.0
 20
-8.613648414611816
 30
16.616943359375
 10
-1000.0
 20
-8.443208694458007
 30
17.37284851074219
 10
-1000.0
 20
-8.174939155578613
 30
17.95096397399902
 10
-1000.0
 20
-7.81840705871582
 30
18.45842361450195
 10
-1000.0
 20
-7.435646057128906
 30
18.88088226318359
 10
-1000.0
 20
-6.942287445068359
 30
19.31733322143555
 10
-1000.0
 20
-6.336380004882812
 30
19.75122451782226
 10
-1000.0
 20
-5.619967460632324
 30
20.16844749450684
 10
-1000.0
 20
-4.82071304321289
 30
20.54453086853027
 10
-1000.0
 20
-4.169538497924804
 30
20.80083656311035
 10
-1000.0
 20
-4.147103309631347
 30
20.81699943542481
 10
-1000.0
 20
-4.136651039123535
 30
20.84259605407715
 10
-1000.0
 20
-4.031063079833984
 30
21.8286247253418
 10
-1000.0
 20
-4.006991386413574
 30
21.88361549377441
 10
-1000.0
 20
-3.955822944641113
 30
21.91500663757324
 10
-1000.0
 20
-3.605626106262207
 30
22.03254508972168
 10
-1000.0
 20
-3.27333116531372
 30
22.20685577392578
 10
-1000.0
 20
-2.952636241912841
 30
22.44613265991211
 10
-1000.0
 20
-2.720952033996582
 30
22.67588806152344
 10
-1000.0
 20
-2.428194999694824
 30
23.04547882080078
 10
-1000.0
 20
-2.165686607360839
 30
23.48756790161133
 10
-1000.0
 20
-1.948236465454101
 30
23.98112487792969
 10
-1000.0
 20
-1.789841651916503
 30
24.49880409240723
 10
-1000.0
 20
-1.709078311920166
 30
24.91239166259766
 10
-1000.0
 20
-1.67604112625122
 30
24.97510719299317
 10
-1000.0
 20
-1.609805107116699
 30
25.0003547668457
 10
1000.0
 20
-0.0153121948242188
 30
20.04067611694336
 10
1000.0
 20
-4.136651039123535
 30
20.84259414672851
 10
1000.0
 20
-4.031063079833984
 30
21.8286247253418
 10
1000.0
 20
-4.006991386413574
 30
21.88361549377441
 10
1000.0
 20
-3.955822944641113
 30
21.91500663757324
 10
1000.0
 20
-3.605626106262207
 30
22.03254508972168
 10
1000.0
 20
-3.27333116531372
 30
22.20685577392578
 10
1000.0
 20
-2.952636241912841
 30
22.44613265991211
 10
1000.0
 20
-2.720952033996582
 30
22.67588806152344
 10
1000.0
 20
-2.428194999694824
 30
23.04547882080078
 10
1000.0
 20
-2.165686607360839
 30
23.48756790161133
 10
1000.0
 20
-1.948236465454101
 30
23.98112487792969
 10
1000.0
 20
-1.789841651916503
 30
24.49880409240723
 10
1000.0
 20
-1.709078311920166
 30
24.91239166259766
 10
1000.0
 20
-1.67604112625122
 30
24.97510719299317
 10
1000.0
 20
-1.609805107116699
 30
25.0003547668457
 10
1000.0
 20
0.0000038146972656
 30
25.0003547668457
 10
1000.0
 20
0.0000038146972656
 30
0.0003547668457031
 10
1000.0
 20
-1.938560009002685
 30
0.3402519226074219
 10
1000.0
 20
-1.963624954223632
 30
0.4025382995605469
 10
1000.0
 20
-2.012728214263916
 30
1.670314788818359
 10
1000.0
 20
-1.879837036132812
 30
0.3077201843261719
 10
1000.0
 20
-2.021928310394287
 30
1.697292327880859
 10
1000.0
 20
0.0000038146972656
 30
11.21401214599609
 10
1000.0
 20
-2.044345378875732
 30
1.714893341064453
 10
1000.0
 20
-2.191628456115722
 30
1.778553009033203
 10
1000.0
 20
-3.2922945022583
 30
5.550029754638671
 10
1000.0
 20
-3.152714252471923
 30
5.703163146972656
 10
1000.0
 20
-2.486731529235839
 30
1.927295684814453
 10
1000.0
 20
-3.489548683166503
 30
5.301090240478515
 10
1000.0
 20
-2.769784927368164
 30
2.105632781982421
 10
1000.0
 20
-3.6578369140625
 30
5.025310516357421
 10
1000.0
 20
-3.019678592681884
 30
2.303264617919921
 10
1000.0
 20
-3.776714324951171
 30
4.75247573852539
 10
1000.0
 20
-3.237186908721923
 30
2.515567779541015
 10
1000.0
 20
-3.85187816619873
 30
4.482021331787109
 10
1000.0
 20
-3.422660827636718
 30
2.740413665771484
 10
1000.0
 20
-3.887823104858398
 30
4.209850311279296
 10
1000.0
 20
-3.576632976531982
 30
2.974811553955078
 10
1000.0
 20
-3.885577201843261
 30
3.940990447998046
 10
1000.0
 20
-3.699442863464355
 30
3.215282440185546
 10
1000.0
 20
-3.853204727172851
 30
3.700893402099609
 10
1000.0
 20
-3.79134178161621
 30
3.459217071533203
 10
1000.0
 20
-3.13819408416748
 30
5.738971710205078
 10
1000.0
 20
-3.153407096862792
 30
5.774490356445312
 10
1000.0
 20
-3.866284370422363
 30
6.461441040039062
 10
1000.0
 20
-3.896406173706054
 30
6.524879455566406
 10
1000.0
 20
-3.877573013305664
 30
6.592536926269531
 10
1000.0
 20
-3.570615291595458
 30
7.041938781738281
 10
1000.0
 20
-3.319780349731445
 30
7.482063293457031
 10
1000.0
 20
-3.064007759094238
 30
8.104007720947265
 10
1000.0
 20
-2.927260398864746
 30
8.81192398071289
 10
1000.0
 20
-2.979958534240722
 30
9.407886505126953
 10
1000.0
 20
-3.202022552490234
 30
9.968624114990234
 10
1000.0
 20
-4.147103309631347
 30
20.81699752807617
 10
1000.0
 20
-4.169538497924804
 30
20.80083847045898
 10
1000.0
 20
-0.2663650512695312
 30
18.85203552246094
 10
1000.0
 20
-0.7225890159606934
 30
17.9937858581543
 10
1000.0
 20
-5.619967460632324
 30
20.16844558715821
 10
1000.0
 20
-4.82071304321289
 30
20.54452896118164
 10
1000.0
 20
-6.942287445068359
 30
19.31733322143555
 10
1000.0
 20
-6.336380004882812
 30
19.75122451782226
 10
1000.0
 20
-1.268884181976318
 30
17.29530334472656
 10
1000.0
 20
-7.435646057128906
 30
18.88088226318359
 10
1000.0
 20
-8.174939155578613
 30
17.95096206665039
 10
1000.0
 20
-7.81840705871582
 30
18.45842361450195
 10
1000.0
 20
-1.586505413055419
 30
16.58212661743164
 10
1000.0
 20
-8.443208694458007
 30
17.37284851074219
 10
1000.0
 20
-0.1281824111938477
 30
12.33892440795898
 10
1000.0
 20
-3.494857311248779
 30
10.39617156982422
 10
1000.0
 20
-3.850120544433593
 30
10.76295471191406
 10
1000.0
 20
-0.5061659812927246
 30
13.40615463256836
 10
1000.0
 20
-4.415455818176269
 30
11.21750259399414
 10
1000.0
 20
-1.114567279815673
 30
14.36098480224609
 10
1000.0
 20
-5.10934829711914
 30
11.69998931884765
 10
1000.0
 20
-5.658818244934082
 30
12.06298828125
 10
1000.0
 20
-6.234405517578125
 30
12.46534347534179
 10
1000.0
 20
-8.58251953125
 30
15.81648254394531
 10
1000.0
 20
-8.613648414611816
 30
16.616943359375
 10
1000.0
 20
-1.66836929321289
 30
15.80514907836914
 10
1000.0
 20
-8.455936431884765
 30
15.27470016479492
 10
1000.0
 20
-1.505958080291748
 30
15.03931045532226
 10
1000.0
 20
-6.799076080322265
 30
12.90782165527344
 10
1000.0
 20
-7.285552024841308
 30
13.36993026733398
 10
1000.0
 20
-7.69255256652832
 30
13.84724426269531
 10
1000.0
 20
-8.02366828918457
 30
14.33549880981445
 10
1000.0
 20
-8.276634216308593
 30
14.81360626220703
 93
      905
 90
        4
 90
      103
 90
       87
 90
        1
 90
        0
 90
        4
 90
       87
 90
      143
 90
        2
 90
        1
 90
        4
 90
      143
 90
      144
 90
        3
 90
        2
 90
        4
 90
      144
 90
      149
 90
        4
 90
        3
 90
        4
 90
      149
 90
      153
 90
        5
 90
        4
 90
        4
 90
      153
 90
      166
 90
        6
 90
        5
 90
        4
 90
      166
 90
      168
 90
        7
 90
        6
 90
        4
 90
      168
 90
      160
 90
        8
 90
        7
 90
        4
 90
      160
 90
      158
 90
        9
 90
        8
 90
        4
 90
      158
 90
      155
 90
       10
 90
        9
 90
        4
 90
      155
 90
      110
 90
       11
 90
       10
 90
        4
 90
      110
 90
      104
 90
       12
 90
       11
 90
        4
 90
      104
 90
      108
 90
       13
 90
       12
 90
        4
 90
      108
 90
      105
 90
       14
 90
       13
 90
        4
 90
      105
 90
      106
 90
       15
 90
       14
 90
        4
 90
      106
 90
      107
 90
       16
 90
       15
 90
        4
 90
      107
 90
      109
 90
       17
 90
       16
 90
        4
 90
      109
 90
      111
 90
       18
 90
       17
 90
        4
 90
      111
 90
      112
 90
       19
 90
       18
 90
        4
 90
      112
 90
      115
 90
       20
 90
       19
 90
        4
 90
      115
 90
      117
 90
       21
 90
       20
 90
        4
 90
      117
 90
      119
 90
       22
 90
       21
 90
        4
 90
      119
 90
      121
 90
       23
 90
       22
 90
        4
 90
      121
 90
      123
 90
       24
 90
       23
 90
        4
 90
      123
 90
      125
 90
       25
 90
       24
 90
        4
 90
      125
 90
      127
 90
       26
 90
       25
 90
        4
 90
      127
 90
      129
 90
       27
 90
       26
 90
        4
 90
      129
 90
      128
 90
       28
 90
       27
 90
        4
 90
      128
 90
      126
 90
       29
 90
       28
 90
        4
 90
      126
 90
      124
 90
       30
 90
       29
 90
        4
 90
      124
 90
      122
 90
       31
 90
       30
 90
        4
 90
      122
 90
      120
 90
       32
 90
       31
 90
        4
 90
      120
 90
      118
 90
       33
 90
       32
 90
        4
 90
      118
 90
      116
 90
       34
 90
       33
 90
        4
 90
      116
 90
      113
 90
       35
 90
       34
 90
        4
 90
      113
 90
      114
 90
       36
 90
       35
 90
        4
 90
      114
 90
      130
 90
       37
 90
       36
 90
        4
 90
      130
 90
      131
 90
       38
 90
       37
 90
        4
 90
      131
 90
      132
 90
       39
 90
       38
 90
        4
 90
      132
 90
      133
 90
       40
 90
       39
 90
        4
 90
      133
 90
      134
 90
       41
 90
       40
 90
        4
 90
      134
 90
      135
 90
       42
 90
       41
 90
        4
 90
      135
 90
      136
 90
       43
 90
       42
 90
        4
 90
      136
 90
      137
 90
       44
 90
       43
 90
        4
 90
      137
 90
      138
 90
       45
 90
       44
 90
        4
 90
      138
 90
      139
 90
       46
 90
       45
 90
        4
 90
      139
 90
      140
 90
       47
 90
       46
 90
        4
 90
      140
 90
      156
 90
       48
 90
       47
 90
        4
 90
      156
 90
      157
 90
       49
 90
       48
 90
        4
 90
      157
 90
      159
 90
       50
 90
       49
 90
        4
 90
      159
 90
      161
 90
       51
 90
       50
 90
        4
 90
      161
 90
      162
 90
       52
 90
       51
 90
        4
 90
      162
 90
      163
 90
       53
 90
       52
 90
        4
 90
      163
 90
      169
 90
       54
 90
       53
 90
        4
 90
      169
 90
      170
 90
       55
 90
       54
 90
        4
 90
      170
 90
      171
 90
       56
 90
       55
 90
        4
 90
      171
 90
      172
 90
       57
 90
       56
 90
        4
 90
      172
 90
      173
 90
       58
 90
       57
 90
        4
 90
      173
 90
      167
 90
       59
 90
       58
 90
        4
 90
      167
 90
      164
 90
       60
 90
       59
 90
        4
 90
      164
 90
      165
 90
       61
 90
       60
 90
        4
 90
      165
 90
      154
 90
       62
 90
       61
 90
        4
 90
      154
 90
      151
 90
       63
 90
       62
 90
        4
 90
      151
 90
      152
 90
       64
 90
       63
 90
        4
 90
      152
 90
      150
 90
       65
 90
       64
 90
        4
 90
      150
 90
      147
 90
       66
 90
       65
 90
        4
 90
      147
 90
      148
 90
       67
 90
       66
 90
        4
 90
      148
 90
      145
 90
       68
 90
       67
 90
        4
 90
      145
 90
      146
 90
       69
 90
       68
 90
        4
 90
      146
 90
      142
 90
       70
 90
       69
 90
        4
 90
      142
 90
      141
 90
       71
 90
       70
 90
        4
 90
      141
 90
       88
 90
       72
 90
       71
 90
        4
 90
       88
 90
       89
 90
       73
 90
       72
 90
        4
 90
       89
 90
       90
 90
       74
 90
       73
 90
        4
 90
       90
 90
       91
 90
       75
 90
       74
 90
        4
 90
       91
 90
       92
 90
       76
 90
       75
 90
        4
 90
       92
 90
       93
 90
       77
 90
       76
 90
        4
 90
       93
 90
       94
 90
       78
 90
       77
 90
        4
 90
       94
 90
       95
 90
       79
 90
       78
 90
        4
 90
       95
 90
       96
 90
       80
 90
       79
 90
        4
 90
       96
 90
       97
 90
       81
 90
       80
 90
        4
 90
       97
 90
       98
 90
       82
 90
       81
 90
        4
 90
       98
 90
       99
 90
       83
 90
       82
 90
        4
 90
       99
 90
      100
 90
       84
 90
       83
 90
        4
 90
      100
 90
      101
 90
       85
 90
       84
 90
        4
 90
      101
 90
      102
 90
       86
 90
       85
 90
        4
 90
      102
 90
      103
 90
        0
 90
       86
 90
       17
 90
        1
 90
       72
 90
       73
 90
       74
 90
       75
 90
       76
 90
       77
 90
       78
 90
       79
 90
       80
 90
       81
 90
       82
 90
       83
 90
       84
 90
       85
 90
       86
 90
        0
 90
        3
 90
       12
 90
       14
 90
       15
 90
        3
 90
       12
 90
       15
 90
       16
 90
        3
 90
       12
 90
       13
 90
       14
 90
        3
 90
       12
 90
       16
 90
       17
 90
        3
 90
       11
 90
       12
 90
       17
 90
        3
 90
       11
 90
       17
 90
       18
 90
        4
 90
       18
 90
       19
 90
       35
 90
       36
 90
        4
 90
       19
 90
       20
 90
       34
 90
       35
 90
        4
 90
       20
 90
       21
 90
       33
 90
       34
 90
        4
 90
       21
 90
       22
 90
       32
 90
       33
 90
        4
 90
       22
 90
       23
 90
       31
 90
       32
 90
        4
 90
       23
 90
       24
 90
       30
 90
       31
 90
        4
 90
       24
 90
       25
 90
       29
 90
       30
 90
        4
 90
       25
 90
       26
 90
       28
 90
       29
 90
        3
 90
       26
 90
       27
 90
       28
 90
        4
 90
       11
 90
       18
 90
       36
 90
       37
 90
        3
 90
       11
 90
       37
 90
       38
 90
        3
 90
       39
 90
       40
 90
       41
 90
        4
 90
       38
 90
       39
 90
       41
 90
       42
 90
        3
 90
       38
 90
       42
 90
       43
 90
        4
 90
       11
 90
       38
 90
       43
 90
       44
 90
        3
 90
       11
 90
       44
 90
       45
 90
        3
 90
       11
 90
       45
 90
       46
 90
        3
 90
       11
 90
       46
 90
       47
 90
        3
 90
        1
 90
       71
 90
       72
 90
        3
 90
        1
 90
       70
 90
       71
 90
        4
 90
        2
 90
        3
 90
       68
 90
       69
 90
        4
 90
        1
 90
        2
 90
       69
 90
       70
 90
        3
 90
        3
 90
       66
 90
       67
 90
        3
 90
        3
 90
       67
 90
       68
 90
        4
 90
        3
 90
        4
 90
       65
 90
       66
 90
        3
 90
        4
 90
       63
 90
       64
 90
        3
 90
        4
 90
       64
 90
       65
 90
        4
 90
        4
 90
        5
 90
       62
 90
       63
 90
        4
 90
       10
 90
       11
 90
       47
 90
       48
 90
        3
 90
       10
 90
       48
 90
       49
 90
        4
 90
        9
 90
       10
 90
       49
 90
       50
 90
        4
 90
        8
 90
        9
 90
       50
 90
       51
 90
        3
 90
        8
 90
       51
 90
       52
 90
        3
 90
        8
 90
       52
 90
       53
 90
        3
 90
        5
 90
       60
 90
       61
 90
        3
 90
        5
 90
       61
 90
       62
 90
        4
 90
        5
 90
        6
 90
       59
 90
       60
 90
        4
 90
        7
 90
        8
 90
       53
 90
       54
 90
        3
 90
        7
 90
       54
 90
       55
 90
        3
 90
        7
 90
       55
 90
       56
 90
        4
 90
        6
 90
        7
 90
       56
 90
       57
 90
        3
 90
        6
 90
       57
 90
       58
 90
        3
 90
        6
 90
       58
 90
       59
 90
       17
 90
       87
 90
      103
 90
      102
 90
      101
 90
      100
 90
       99
 90
       98
 90
       97
 90
       96
 90
       95
 90
       94
 90
       93
 90
       92
 90
       91
 90
       90
 90
       89
 90
       88
 90
        3
 90
      104
 90
      106
 90
      105
 90
        3
 90
      104
 90
      107
 90
      106
 90
        3
 90
      104
 90
      105
 90
      108
 90
        3
 90
      104
 90
      109
 90
      107
 90
        3
 90
      110
 90
      109
 90
      104
 90
        3
 90
      110
 90
      111
 90
      109
 90
        4
 90
      111
 90
      114
 90
      113
 90
      112
 90
        4
 90
      112
 90
      113
 90
      116
 90
      115
 90
        4
 90
      115
 90
      116
 90
      118
 90
      117
 90
        4
 90
      117
 90
      118
 90
      120
 90
      119
 90
        4
 90
      119
 90
      120
 90
      122
 90
      121
 90
        4
 90
      121
 90
      122
 90
      124
 90
      123
 90
        4
 90
      123
 90
      124
 90
      126
 90
      125
 90
        4
 90
      125
 90
      126
 90
      128
 90
      127
 90
        3
 90
      127
 90
      128
 90
      129
 90
        4
 90
      110
 90
      130
 90
      114
 90
      111
 90
        3
 90
      110
 90
      131
 90
      130
 90
        3
 90
      132
 90
      134
 90
      133
 90
        4
 90
      131
 90
      135
 90
      134
 90
      132
 90
        3
 90
      131
 90
      136
 90
      135
 90
        4
 90
      110
 90
      137
 90
      136
 90
      131
 90
        3
 90
      110
 90
      138
 90
      137
 90
        3
 90
      110
 90
      139
 90
      138
 90
        3
 90
      110
 90
      140
 90
      139
 90
        3
 90
       87
 90
       88
 90
      141
 90
        3
 90
       87
 90
      141
 90
      142
 90
        4
 90
      143
 90
      146
 90
      145
 90
      144
 90
        4
 90
       87
 90
      142
 90
      146
 90
      143
 90
        3
 90
      144
 90
      148
 90
      147
 90
        3
 90
      144
 90
      145
 90
      148
 90
        4
 90
      144
 90
      147
 90
      150
 90
      149
 90
        3
 90
      149
 90
      152
 90
      151
 90
        3
 90
      149
 90
      150
 90
      152
 90
        4
 90
      149
 90
      151
 90
      154
 90
      153
 90
        4
 90
      155
 90
      156
 90
      140
 90
      110
 90
        3
 90
      155
 90
      157
 90
      156
 90
        4
 90
      158
 90
      159
 90
      157
 90
      155
 90
        4
 90
      160
 90
      161
 90
      159
 90
      158
 90
        3
 90
      160
 90
      162
 90
      161
 90
        3
 90
      160
 90
      163
 90
      162
 90
        3
 90
      153
 90
      165
 90
      164
 90
        3
 90
      153
 90
      154
 90
      165
 90
        4
 90
      153
 90
      164
 90
      167
 90
      166
 90
        4
 90
      168
 90
      169
 90
      163
 90
      160
 90
        3
 90
      168
 90
      170
 90
      169
 90
        3
 90
      168
 90
      171
 90
      170
 90
        4
 90
      166
 90
      172
 90
      171
 90
      168
 90
        3
 90
      166
 90
      173
 90
      172
 90
        3
 90
      166
 90
      167
 90
      173
 94
      359
 90
       87
 90
      103
 90
        1
 90
       87
 90
        0
 90
        1
 90
        0
 90
      103
 90
       87
 90
      143
 90
        2
 90
      143
 90
        1
 90
        2
 90
      143
 90
      144
 90
        3
 90
      144
 90
        2
 90
        3
 90
      144
 90
      149
 90
        4
 90
      149
 90
        3
 90
        4
 90
      149
 90
      153
 90
        5
 90
      153
 90
        4
 90
        5
 90
      153
 90
      166
 90
        6
 90
      166
 90
        5
 90
        6
 90
      166
 90
      168
 90
        7
 90
      168
 90
        6
 90
        7
 90
      160
 90
      168
 90
        8
 90
      160
 90
        7
 90
        8
 90
      158
 90
      160
 90
        9
 90
      158
 90
        8
 90
        9
 90
      155
 90
      158
 90
       10
 90
      155
 90
        9
 90
       10
 90
      110
 90
      155
 90
       11
 90
      110
 90
       10
 90
       11
 90
      104
 90
      110
 90
       12
 90
      104
 90
       11
 90
       12
 90
      104
 90
      108
 90
       13
 90
      108
 90
       12
 90
       13
 90
      105
 90
      108
 90
       14
 90
      105
 90
       13
 90
       14
 90
      105
 90
      106
 90
       15
 90
      106
 90
       14
 90
       15
 90
      106
 90
      107
 90
       16
 90
      107
 90
       15
 90
       16
 90
      107
 90
      109
 90
       17
 90
      109
 90
       16
 90
       17
 90
      109
 90
      111
 90
       18
 90
      111
 90
       17
 90
       18
 90
      111
 90
      112
 90
       19
 90
      112
 90
       18
 90
       19
 90
      112
 90
      115
 90
       20
 90
      115
 90
       19
 90
       20
 90
      115
 90
      117
 90
       21
 90
      117
 90
       20
 90
       21
 90
      117
 90
      119
 90
       22
 90
      119
 90
       21
 90
       22
 90
      119
 90
      121
 90
       23
 90
      121
 90
       22
 90
       23
 90
      121
 90
      123
 90
       24
 90
      123
 90
       23
 90
       24
 90
      123
 90
      125
 90
       25
 90
      125
 90
       24
 90
       25
 90
      125
 90
      127
 90
       26
 90
      127
 90
       25
 90
       26
 90
      127
 90
      129
 90
       27
 90
      129
 90
       26
 90
       27
 90
      128
 90
      129
 90
       28
 90
      128
 90
       27
 90
       28
 90
      126
 90
      128
 90
       29
 90
      126
 90
       28
 90
       29
 90
      124
 90
      126
 90
       30
 90
      124
 90
       29
 90
       30
 90
      122
 90
      124
 90
       31
 90
      122
 90
       30
 90
       31
 90
      120
 90
      122
 90
       32
 90
      120
 90
       31
 90
       32
 90
      118
 90
      120
 90
       33
 90
      118
 90
       32
 90
       33
 90
      116
 90
      118
 90
       34
 90
      116
 90
       33
 90
       34
 90
      113
 90
      116
 90
       35
 90
      113
 90
       34
 90
       35
 90
      113
 90
      114
 90
       36
 90
      114
 90
       35
 90
       36
 90
      114
 90
      130
 90
       37
 90
      130
 90
       36
 90
       37
 90
      130
 90
      131
 90
       38
 90
      131
 90
       37
 90
       38
 90
      131
 90
      132
 90
       39
 90
      132
 90
       38
 90
       39
 90
      132
 90
      133
 90
       40
 90
      133
 90
       39
 90
       40
 90
      133
 90
      134
 90
       41
 90
      134
 90
       40
 90
       41
 90
      134
 90
      135
 90
       42
 90
      135
 90
       41
 90
       42
 90
      135
 90
      136
 90
       43
 90
      136
 90
       42
 90
       43
 90
      136
 90
      137
 90
       44
 90
      137
 90
       43
 90
       44
 90
      137
 90
      138
 90
       45
 90
      138
 90
       44
 90
       45
 90
      138
 90
      139
 90
       46
 90
      139
 90
       45
 90
       46
 90
      139
 90
      140
 90
       47
 90
      140
 90
       46
 90
       47
 90
      140
 90
      156
 90
       48
 90
      156
 90
       47
 90
       48
 90
      156
 90
      157
 90
       49
 90
      157
 90
       48
 90
       49
 90
      157
 90
      159
 90
       50
 90
      159
 90
       49
 90
       50
 90
      159
 90
      161
 90
       51
 90
      161
 90
       50
 90
       51
 90
      161
 90
      162
 90
       52
 90
      162
 90
       51
 90
       52
 90
      162
 90
      163
 90
       53
 90
      163
 90
       52
 90
       53
 90
      163
 90
      169
 90
       54
 90
      169
 90
       53
 90
       54
 90
      169
 90
      170
 90
       55
 90
      170
 90
       54
 90
       55
 90
      170
 90
      171
 90
       56
 90
      171
 90
       55
 90
       56
 90
      171
 90
      172
 90
       57
 90
      172
 90
       56
 90
       57
 90
      172
 90
      173
 90
       58
 90
      173
 90
       57
 90
       58
 90
      167
 90
      173
 90
       59
 90
      167
 90
       58
 90
       59
 90
      164
 90
      167
 90
       60
 90
      164
 90
       59
 90
       60
 90
      164
 90
      165
 90
       61
 90
      165
 90
       60
 90
       61
 90
      154
 90
      165
 90
       62
 90
      154
 90
       61
 90
       62
 90
      151
 90
      154
 90
       63
 90
      151
 90
       62
 90
       63
 90
      151
 90
      152
 90
       64
 90
      152
 90
       63
 90
       64
 90
      150
 90
      152
 90
       65
 90
      150
 90
       64
 90
       65
 90
      147
 90
      150
 90
       66
 90
      147
 90
       65
 90
       66
 90
      147
 90
      148
 90
       67
 90
      148
 90
       66
 90
       67
 90
      145
 90
      148
 90
       68
 90
      145
 90
       67
 90
       68
 90
      145
 90
      146
 90
       69
 90
      146
 90
       68
 90
       69
 90
      142
 90
      146
 90
       70
 90
      142
 90
       69
 90
       70
 90
      141
 90
      142
 90
       71
 90
      141
 90
       70
 90
       71
 90
       88
 90
      141
 90
       72
 90
       88
 90
       71
 90
       72
 90
       88
 90
       89
 90
       73
 90
       89
 90
       72
 90
       73
 90
       89
 90
       90
 90
       74
 90
       90
 90
       73
 90
       74
 90
       90
 90
       91
 90
       75
 90
       91
 90
       74
 90
       75
 90
       91
 90
       92
 90
       76
 90
       92
 90
       75
 90
       76
 90
       92
 90
       93
 90
       77
 90
       93
 90
       76
 90
       77
 90
       93
 90
       94
 90
       78
 90
       94
 90
       77
 90
       78
 90
       94
 90
       95
 90
       79
 90
       95
 90
       78
 90
       79
 90
       95
 90
       96
 90
       80
 90
       96
 90
       79
 90
       80
 90
       96
 90
       97
 90
       81
 90
       97
 90
       80
 90
       81
 90
       97
 90
       98
 90
       82
 90
       98
 90
       81
 90
       82
 90
       98
 90
       99
 90
       83
 90
       99
 90
       82
 90
       83
 90
       99
 90
      100
 90
       84
 90
      100
 90
       83
 90
       84
 90
      100
 90
      101
 90
       85
 90
      101
 90
       84
 90
       85
 90
      101
 90
      102
 90
       86
 90
      102
 90
       85
 90
       86
 90
      102
 90
      103
 90
        0
 90
       86
 90
        1
 90
       72
 90
       12
 90
       14
 90
       12
 90
       15
 90
       12
 90
       16
 90
       12
 90
       17
 90
       11
 90
       17
 90
       11
 90
       18
 90
       19
 90
       35
 90
       18
 90
       36
 90
       20
 90
       34
 90
       21
 90
       33
 90
       22
 90
       32
 90
       23
 90
       31
 90
       24
 90
       30
 90
       25
 90
       29
 90
       26
 90
       28
 90
       11
 90
       37
 90
       11
 90
       38
 90
       39
 90
       41
 90
       38
 90
       42
 90
       38
 90
       43
 90
       11
 90
       44
 90
       11
 90
       45
 90
       11
 90
       46
 90
       11
 90
       47
 90
        1
 90
       71
 90
        1
 90
       70
 90
        3
 90
       68
 90
        2
 90
       69
 90
        3
 90
       66
 90
        3
 90
       67
 90
        4
 90
       65
 90
        4
 90
       63
 90
        4
 90
       64
 90
        5
 90
       62
 90
       10
 90
       48
 90
       10
 90
       49
 90
        9
 90
       50
 90
        8
 90
       51
 90
        8
 90
       52
 90
        8
 90
       53
 90
        5
 90
       60
 90
        5
 90
       61
 90
        6
 90
       59
 90
        7
 90
       54
 90
        7
 90
       55
 90
        7
 90
       56
 90
        6
 90
       57
 90
        6
 90
       58
 90
       87
 90
       88
 90
      104
 90
      106
 90
      104
 90
      105
 90
      104
 90
      107
 90
      104
 90
      109
 90
      109
 90
      110
 90
      110
 90
      111
 90
      111
 90
      114
 90
      112
 90
      113
 90
      115
 90
      116
 90
      117
 90
      118
 90
      119
 90
      120
 90
      121
 90
      122
 90
      123
 90
      124
 90
      125
 90
      126
 90
      127
 90
      128
 90
      110
 90
      130
 90
      110
 90
      131
 90
      132
 90
      134
 90
      131
 90
      135
 90
      131
 90
      136
 90
      110
 90
      137
 90
      110
 90
      138
 90
      110
 90
      139
 90
      110
 90
      140
 90
       87
 90
      141
 90
       87
 90
      142
 90
      143
 90
      146
 90
      144
 90
      145
 90
      144
 90
      148
 90
      144
 90
      147
 90
      149
 90
      150
 90
      149
 90
      152
 90
      149
 90
      151
 90
      153
 90
      154
 90
      155
 90
      156
 90
      155
 90
      157
 90
      158
 90
      159
 90
      160
 90
      161
 90
      160
 90
      162
 90
      160
 90
      163
 90
      153
 90
      165
 90
      153
 90
      164
 90
      166
 90
      167
 90
      168
 90
      169
 90
      168
 90
      170
 90
      168
 90
      171
 90
      166
 90
      172
 90
      166
 90
      173
 95
      359
140
0.0
140
0.0
140
0.0
140
0.0
140
0.0
140
0.0
140
0.0
140
0.0
140
0.0
140
0.0
140
0.0
140
0.0
140
0.0
140
0.0
140
0.0
140
0.0
140
0.0
140
0.0
140
0.0
140
0.0
140
0.0
140
0.0
140
0.0
140
0.0
140
0.0
140
0.0
140
0.0
140
0.0
140
0.0
140
0.0
140
0.0
140
0.0
140
0.0
140
0.0
140
0.0
140
0.0
140
0.0
140
0.0
140
0.0
140
0.0
140
0.0
140
0.0
140
0.0
140
0.0
140
0.0
140
0.0
140
0.0
140
0.0
140
0.0
140
0.0
140
0.0
140
0.0
140
0.0
140
0.0
140
0.0
140
0.0
140
0.0
140
0.0
140
0.0
140
0.0
140
0.0
140
0.0
140
0.0
140
0.0
140
0.0
140
0.0
140
0.0
140
0.0
140
0.0
140
0.0
140
0.0
140
0.0
140
0.0
140
0.0
140
0.0
140
0.0
140
0.0
140
0.0
140
0.0
140
0.0
140
0.0
140
0.0
140
0.0
140
0.0
140
0.0
140
0.0
140
0.0
140
0.0
140
0.0
140
0.0
140
0.0
140
0.0
140
0.0
140
0.0
140
0.0
140
0.0
140
0.0
140
0.0
140
0.0
140
0.0
140
0.0
140
0.0
140
0.0
140
0.0
140
0.0
140
0.0
140
0.0
140
0.0
140
0.0
140
0.0
140
0.0
140
0.0
140
0.0
140
0.0
140
0.0
140
0.0
140
0.0
140
0.0
140
0.0
140
0.0
140
0.0
140
0.0
140
0.0
140
0.0
140
0.0
140
0.0
140
0.0
140
0.0
140
0.0
140
0.0
140
0.0
140
0.0
140
0.0
140
0.0
140
0.0
140
0.0
140
0.0
140
0.0
140
0.0
140
0.0
140
0.0
140
0.0
140
0.0
140
0.0
140
0.0
140
0.0
140
0.0
140
0.0
140
0.0
140
0.0
140
0.0
140
0.0
140
0.0
140
0.0
140
0.0
140
0.0
140
0.0
140
0.0
140
0.0
140
0.0
140
0.0
140
0.0
140
0.0
140
0.0
140
0.0
140
0.0
140
0.0
140
0.0
140
0.0
140
0.0
140
0.0
140
0.0
140
0.0
140
0.0
140
0.0
140
0.0
140
0.0
140
0.0
140
0.0
140
0.0
140
0.0
140
0.0
140
0.0
140
0.0
140
0.0
140
0.0
140
0.0
140
0.0
140
0.0
140
0.0
140
0.0
140
0.0
140
0.0
140
0.0
140
0.0
140
0.0
140
0.0
140
0.0
140
0.0
140
0.0
140
0.0
140
0.0
140
0.0
140
0.0
140
0.0
140
0.0
140
0.0
140
0.0
140
0.0
140
0.0
140
0.0
140
0.0
140
0.0
140
0.0
140
0.0
140
0.0
140
0.0
140
0.0
140
0.0
140
0.0
140
0.0
140
0.0
140
0.0
140
0.0
140
0.0
140
0.0
140
0.0
140
0.0
140
0.0
140
0.0
140
0.0
140
0.0
140
0.0
140
0.0
140
0.0
140
0.0
140
0.0
140
0.0
140
0.0
140
0.0
140
0.0
140
0.0
140
0.0
140
0.0
140
0.0
140
0.0
140
0.0
140
0.0
140
0.0
140
0.0
140
0.0
140
0.0
140
0.0
140
0.0
140
0.0
140
0.0
140
0.0
140
0.0
140
0.0
140
0.0
140
0.0
140
0.0
140
0.0
140
0.0
140
0.0
140
0.0
140
0.0
140
0.0
140
0.0
140
0.0
140
0.0
140
0.0
140
0.0
140
0.0
140
0.0
140
0.0
140
0.0
140
0.0
140
0.0
140
0.0
140
0.0
140
0.0
140
0.0
140
0.0
140
0.0
140
0.0
140
0.0
140
0.0
140
0.0
140
0.0
140
0.0
140
0.0
140
0.0
140
0.0
140
0.0
140
0.0
140
0.0
140
0.0
140
0.0
140
0.0
140
0.0
140
0.0
140
0.0
140
0.0
140
0.0
140
0.0
140
0.0
140
0.0
140
0.0
140
0.0
140
0.0
140
0.0
140
0.0
140
0.0
140
0.0
140
0.0
140
0.0
140
0.0
140
0.0
140
0.0
140
0.0
140
0.0
140
0.0
140
0.0
140
0.0
140
0.0
140
0.0
140
0.0
140
0.0
140
0.0
140
0.0
140
0.0
140
0.0
140
0.0
140
0.0
140
0.0
140
0.0
140
0.0
140
0.0
140
0.0
140
0.0
140
0.0
140
0.0
140
0.0
140
0.0
140
0.0
140
0.0
140
0.0
140
0.0
140
0.0
140
0.0
140
0.0
140
0.0
140
0.0
140
0.0
140
0.0
140
0.0
140
0.0
140
0.0
 90
        0
  0
POLYLINE
  5
FA
330
1F
100
AcDbEntity
  8
OracDecor_panel_moldings
 62
    61
420
 14083225
100
AcDb2dPolyline
 66
     1
 10
0.0
 20
0.0
 30
-0.0000023942805001
 70
     1
210
-0.9999999999999769
220
0.0000001788139343
230
-0.0000001192092896
  0
VERTEX
  5
FB
330
FA
100
AcDbEntity
  8
OracDecor_panel_moldings
 62
    61
420
 14083225
100
AcDbVertex
100
AcDb2dVertex
 10
0.0000038146977204
 20
25.0003547668457
 30
-0.0000023942805001
  0
VERTEX
  5
FC
330
FA
100
AcDbEntity
  8
OracDecor_panel_moldings
 62
    61
420
 14083225
100
AcDbVertex
100
AcDb2dVertex
 10
-0.0153121948242188
 20
20.04067611694336
 30
-0.0000023942805001
  0
VERTEX
  5
FD
330
FA
100
AcDbEntity
  8
OracDecor_panel_moldings
 62
    61
420
 14083225
100
AcDbVertex
100
AcDb2dVertex
 10
-0.2663650512695312
 20
18.8520336151123
 30
-0.0000023942805001
  0
VERTEX
  5
FE
330
FA
100
AcDbEntity
  8
OracDecor_panel_moldings
 62
    61
420
 14083225
100
AcDbVertex
100
AcDb2dVertex
 10
-0.7225890159606934
 20
17.9937858581543
 30
-0.0000023942805001
  0
VERTEX
  5
FF
330
FA
100
AcDbEntity
  8
OracDecor_panel_moldings
 62
    61
420
 14083225
100
AcDbVertex
100
AcDb2dVertex
 10
-1.268884181976318
 20
17.29530334472656
 30
-0.0000023942805001
  0
VERTEX
  5
100
330
FA
100
AcDbEntity
  8
OracDecor_panel_moldings
 62
    61
420
 14083225
100
AcDbVertex
100
AcDb2dVertex
 10
-1.586505413055419
 20
16.58212661743164
 30
-0.0000023942805001
  0
VERTEX
  5
101
330
FA
100
AcDbEntity
  8
OracDecor_panel_moldings
 62
    61
420
 14083225
100
AcDbVertex
100
AcDb2dVertex
 10
-1.66836929321289
 20
15.80514717102051
 30
-0.0000023942805001
  0
VERTEX
  5
102
330
FA
100
AcDbEntity
  8
OracDecor_panel_moldings
 62
    61
420
 14083225
100
AcDbVertex
100
AcDb2dVertex
 10
-1.505958080291748
 20
15.03930854797363
 30
-0.0000023942805001
  0
VERTEX
  5
103
330
FA
100
AcDbEntity
  8
OracDecor_panel_moldings
 62
    61
420
 14083225
100
AcDbVertex
100
AcDb2dVertex
 10
-1.114567279815673
 20
14.36098480224609
 30
-0.0000023942805001
  0
VERTEX
  5
104
330
FA
100
AcDbEntity
  8
OracDecor_panel_moldings
 62
    61
420
 14083225
100
AcDbVertex
100
AcDb2dVertex
 10
-0.5061659812927246
 20
13.40615463256836
 30
-0.0000023942805001
  0
VERTEX
  5
105
330
FA
100
AcDbEntity
  8
OracDecor_panel_moldings
 62
    61
420
 14083225
100
AcDbVertex
100
AcDb2dVertex
 10
-0.1281824111938477
 20
12.33892250061035
 30
-0.0000023942805001
  0
VERTEX
  5
106
330
FA
100
AcDbEntity
  8
OracDecor_panel_moldings
 62
    61
420
 14083225
100
AcDbVertex
100
AcDb2dVertex
 10
0.0000038146972656
 20
11.21401214599609
 30
-0.0000023942805001
  0
VERTEX
  5
107
330
FA
100
AcDbEntity
  8
OracDecor_panel_moldings
 62
    61
420
 14083225
100
AcDbVertex
100
AcDb2dVertex
 10
0.0000038146972656
 20
0.0003547668457031
 30
-0.0000023942805001
  0
VERTEX
  5
108
330
FA
100
AcDbEntity
  8
OracDecor_panel_moldings
 62
    61
420
 14083225
100
AcDbVertex
100
AcDb2dVertex
 10
-1.879837036132812
 20
0.3077200651168823
 30
-0.0000023942805001
  0
VERTEX
  5
109
330
FA
100
AcDbEntity
  8
OracDecor_panel_moldings
 62
    61
420
 14083225
100
AcDbVertex
100
AcDb2dVertex
 10
-1.938560009002685
 20
0.3402556180953979
 30
-0.0000023942805001
  0
VERTEX
  5
10A
330
FA
100
AcDbEntity
  8
OracDecor_panel_moldings
 62
    61
420
 14083225
100
AcDbVertex
100
AcDb2dVertex
 10
-1.963624954223632
 20
0.4025381803512574
 30
-0.0000023942805001
  0
VERTEX
  5
10B
330
FA
100
AcDbEntity
  8
OracDecor_panel_moldings
 62
    61
420
 14083225
100
AcDbVertex
100
AcDb2dVertex
 10
-2.012728214263916
 20
1.670318484306335
 30
-0.0000023942805001
  0
VERTEX
  5
10C
330
FA
100
AcDbEntity
  8
OracDecor_panel_moldings
 62
    61
420
 14083225
100
AcDbVertex
100
AcDb2dVertex
 10
-2.021928310394287
 20
1.697296023368835
 30
-0.0000023942805001
  0
VERTEX
  5
10D
330
FA
100
AcDbEntity
  8
OracDecor_panel_moldings
 62
    61
420
 14083225
100
AcDbVertex
100
AcDb2dVertex
 10
-2.044345378875732
 20
1.714897036552429
 30
-0.0000023942805001
  0
VERTEX
  5
10E
330
FA
100
AcDbEntity
  8
OracDecor_panel_moldings
 62
    61
420
 14083225
100
AcDbVertex
100
AcDb2dVertex
 10
-2.191628456115722
 20
1.778552889823913
 30
-0.0000023942805001
  0
VERTEX
  5
10F
330
FA
100
AcDbEntity
  8
OracDecor_panel_moldings
 62
    61
420
 14083225
100
AcDbVertex
100
AcDb2dVertex
 10
-2.486731529235839
 20
1.927299380302429
 30
-0.0000023942805001
  0
VERTEX
  5
110
330
FA
100
AcDbEntity
  8
OracDecor_panel_moldings
 62
    61
420
 14083225
100
AcDbVertex
100
AcDb2dVertex
 10
-2.769784927368164
 20
2.105632543563842
 30
-0.0000023942805001
  0
VERTEX
  5
111
330
FA
100
AcDbEntity
  8
OracDecor_panel_moldings
 62
    61
420
 14083225
100
AcDbVertex
100
AcDb2dVertex
 10
-3.019678592681884
 20
2.303268194198608
 30
-0.0000023942805001
  0
VERTEX
  5
112
330
FA
100
AcDbEntity
  8
OracDecor_panel_moldings
 62
    61
420
 14083225
100
AcDbVertex
100
AcDb2dVertex
 10
-3.237186908721923
 20
2.515567541122436
 30
-0.0000023942805001
  0
VERTEX
  5
113
330
FA
100
AcDbEntity
  8
OracDecor_panel_moldings
 62
    61
420
 14083225
100
AcDbVertex
100
AcDb2dVertex
 10
-3.422660827636718
 20
2.74041724205017
 30
-0.0000023942805001
  0
VERTEX
  5
114
330
FA
100
AcDbEntity
  8
OracDecor_panel_moldings
 62
    61
420
 14083225
100
AcDbVertex
100
AcDb2dVertex
 10
-3.576632976531982
 20
2.974811315536499
 30
-0.0000023942805001
  0
VERTEX
  5
115
330
FA
100
AcDbEntity
  8
OracDecor_panel_moldings
 62
    61
420
 14083225
100
AcDbVertex
100
AcDb2dVertex
 10
-3.699442863464355
 20
3.215282201766967
 30
-0.0000023942805001
  0
VERTEX
  5
116
330
FA
100
AcDbEntity
  8
OracDecor_panel_moldings
 62
    61
420
 14083225
100
AcDbVertex
100
AcDb2dVertex
 10
-3.79134178161621
 20
3.459216833114624
 30
-0.0000023942805001
  0
VERTEX
  5
117
330
FA
100
AcDbEntity
  8
OracDecor_panel_moldings
 62
    61
420
 14083225
100
AcDbVertex
100
AcDb2dVertex
 10
-3.853204727172851
 20
3.70089316368103
 30
-0.0000023942805001
  0
VERTEX
  5
118
330
FA
100
AcDbEntity
  8
OracDecor_panel_moldings
 62
    61
420
 14083225
100
AcDbVertex
100
AcDb2dVertex
 10
-3.885577201843261
 20
3.940990209579467
 30
-0.0000023942805001
  0
VERTEX
  5
119
330
FA
100
AcDbEntity
  8
OracDecor_panel_moldings
 62
    61
420
 14083225
100
AcDbVertex
100
AcDb2dVertex
 10
-3.887823104858398
 20
4.209850311279296
 30
-0.0000023942805001
  0
VERTEX
  5
11A
330
FA
100
AcDbEntity
  8
OracDecor_panel_moldings
 62
    61
420
 14083225
100
AcDbVertex
100
AcDb2dVertex
 10
-3.85187816619873
 20
4.482021331787109
 30
-0.0000023942805001
  0
VERTEX
  5
11B
330
FA
100
AcDbEntity
  8
OracDecor_panel_moldings
 62
    61
420
 14083225
100
AcDbVertex
100
AcDb2dVertex
 10
-3.776714324951171
 20
4.75247573852539
 30
-0.0000023942805001
  0
VERTEX
  5
11C
330
FA
100
AcDbEntity
  8
OracDecor_panel_moldings
 62
    61
420
 14083225
100
AcDbVertex
100
AcDb2dVertex
 10
-3.6578369140625
 20
5.025310516357421
 30
-0.0000023942805001
  0
VERTEX
  5
11D
330
FA
100
AcDbEntity
  8
OracDecor_panel_moldings
 62
    61
420
 14083225
100
AcDbVertex
100
AcDb2dVertex
 10
-3.489548683166503
 20
5.301090240478515
 30
-0.0000023942805001
  0
VERTEX
  5
11E
330
FA
100
AcDbEntity
  8
OracDecor_panel_moldings
 62
    61
420
 14083225
100
AcDbVertex
100
AcDb2dVertex
 10
-3.2922945022583
 20
5.550029754638671
 30
-0.0000023942805001
  0
VERTEX
  5
11F
330
FA
100
AcDbEntity
  8
OracDecor_panel_moldings
 62
    61
420
 14083225
100
AcDbVertex
100
AcDb2dVertex
 10
-3.152714252471923
 20
5.703161239624023
 30
-0.0000023942805001
  0
VERTEX
  5
120
330
FA
100
AcDbEntity
  8
OracDecor_panel_moldings
 62
    61
420
 14083225
100
AcDbVertex
100
AcDb2dVertex
 10
-3.13819408416748
 20
5.738969802856445
 30
-0.0000023942805001
  0
VERTEX
  5
121
330
FA
100
AcDbEntity
  8
OracDecor_panel_moldings
 62
    61
420
 14083225
100
AcDbVertex
100
AcDb2dVertex
 10
-3.153407096862792
 20
5.774488449096679
 30
-0.0000023942805001
  0
VERTEX
  5
122
330
FA
100
AcDbEntity
  8
OracDecor_panel_moldings
 62
    61
420
 14083225
100
AcDbVertex
100
AcDb2dVertex
 10
-3.866284370422363
 20
6.461441040039062
 30
-0.0000023942805001
  0
VERTEX
  5
123
330
FA
100
AcDbEntity
  8
OracDecor_panel_moldings
 62
    61
420
 14083225
100
AcDbVertex
100
AcDb2dVertex
 10
-3.896406173706054
 20
6.524879455566406
 30
-0.0000023942805001
  0
VERTEX
  5
124
330
FA
100
AcDbEntity
  8
OracDecor_panel_moldings
 62
    61
420
 14083225
100
AcDbVertex
100
AcDb2dVertex
 10
-3.877573013305664
 20
6.592535018920898
 30
-0.0000023942805001
  0
VERTEX
  5
125
330
FA
100
AcDbEntity
  8
OracDecor_panel_moldings
 62
    61
420
 14083225
100
AcDbVertex
100
AcDb2dVertex
 10
-3.570615291595458
 20
7.041938781738281
 30
-0.0000023942805001
  0
VERTEX
  5
126
330
FA
100
AcDbEntity
  8
OracDecor_panel_moldings
 62
    61
420
 14083225
100
AcDbVertex
100
AcDb2dVertex
 10
-3.319780349731445
 20
7.482061386108398
 30
-0.0000023942805001
  0
VERTEX
  5
127
330
FA
100
AcDbEntity
  8
OracDecor_panel_moldings
 62
    61
420
 14083225
100
AcDbVertex
100
AcDb2dVertex
 10
-3.064007759094238
 20
8.104007720947265
 30
-0.0000023942805001
  0
VERTEX
  5
128
330
FA
100
AcDbEntity
  8
OracDecor_panel_moldings
 62
    61
420
 14083225
100
AcDbVertex
100
AcDb2dVertex
 10
-2.927260398864746
 20
8.81192398071289
 30
-0.0000023942805001
  0
VERTEX
  5
129
330
FA
100
AcDbEntity
  8
OracDecor_panel_moldings
 62
    61
420
 14083225
100
AcDbVertex
100
AcDb2dVertex
 10
-2.979958534240722
 20
9.407886505126953
 30
-0.0000023942805001
  0
VERTEX
  5
12A
330
FA
100
AcDbEntity
  8
OracDecor_panel_moldings
 62
    61
420
 14083225
100
AcDbVertex
100
AcDb2dVertex
 10
-3.202022552490234
 20
9.968622207641601
 30
-0.0000023942805001
  0
VERTEX
  5
12B
330
FA
100
AcDbEntity
  8
OracDecor_panel_moldings
 62
    61
420
 14083225
100
AcDbVertex
100
AcDb2dVertex
 10
-3.494857311248779
 20
10.39616966247558
 30
-0.0000023942805001
  0
VERTEX
  5
12C
330
FA
100
AcDbEntity
  8
OracDecor_panel_moldings
 62
    61
420
 14083225
100
AcDbVertex
100
AcDb2dVertex
 10
-3.850120544433593
 20
10.76295471191406
 30
-0.0000023942805001
  0
VERTEX
  5
12D
330
FA
100
AcDbEntity
  8
OracDecor_panel_moldings
 62
    61
420
 14083225
100
AcDbVertex
100
AcDb2dVertex
 10
-4.415455818176269
 20
11.21750259399414
 30
-0.0000023942805001
  0
VERTEX
  5
12E
330
FA
100
AcDbEntity
  8
OracDecor_panel_moldings
 62
    61
420
 14083225
100
AcDbVertex
100
AcDb2dVertex
 10
-5.10934829711914
 20
11.69998931884765
 30
-0.0000023942805001
  0
VERTEX
  5
12F
330
FA
100
AcDbEntity
  8
OracDecor_panel_moldings
 62
    61
420
 14083225
100
AcDbVertex
100
AcDb2dVertex
 10
-5.658818244934082
 20
12.06298828125
 30
-0.0000023942805001
  0
VERTEX
  5
130
330
FA
100
AcDbEntity
  8
OracDecor_panel_moldings
 62
    61
420
 14083225
100
AcDbVertex
100
AcDb2dVertex
 10
-6.234405517578125
 20
12.46534347534179
 30
-0.0000023942805001
  0
VERTEX
  5
131
330
FA
100
AcDbEntity
  8
OracDecor_panel_moldings
 62
    61
420
 14083225
100
AcDbVertex
100
AcDb2dVertex
 10
-6.799076080322265
 20
12.9078197479248
 30
-0.0000023942805001
  0
VERTEX
  5
132
330
FA
100
AcDbEntity
  8
OracDecor_panel_moldings
 62
    61
420
 14083225
100
AcDbVertex
100
AcDb2dVertex
 10
-7.285552024841308
 20
13.36993026733398
 30
-0.0000023942805001
  0
VERTEX
  5
133
330
FA
100
AcDbEntity
  8
OracDecor_panel_moldings
 62
    61
420
 14083225
100
AcDbVertex
100
AcDb2dVertex
 10
-7.69255256652832
 20
13.84724426269531
 30
-0.0000023942805001
  0
VERTEX
  5
134
330
FA
100
AcDbEntity
  8
OracDecor_panel_moldings
 62
    61
420
 14083225
100
AcDbVertex
100
AcDb2dVertex
 10
-8.02366828918457
 20
14.33549785614014
 30
-0.0000023942805001
  0
VERTEX
  5
135
330
FA
100
AcDbEntity
  8
OracDecor_panel_moldings
 62
    61
420
 14083225
100
AcDbVertex
100
AcDb2dVertex
 10
-8.276634216308593
 20
14.81360340118408
 30
-0.0000023942805001
  0
VERTEX
  5
136
330
FA
100
AcDbEntity
  8
OracDecor_panel_moldings
 62
    61
420
 14083225
100
AcDbVertex
100
AcDb2dVertex
 10
-8.455936431884765
 20
15.2746992111206
 30
-0.0000023942805001
  0
VERTEX
  5
137
330
FA
100
AcDbEntity
  8
OracDecor_panel_moldings
 62
    61
420
 14083225
100
AcDbVertex
100
AcDb2dVertex
 10
-8.58251953125
 20
15.81648159027099
 30
-0.0000023942805001
  0
VERTEX
  5
138
330
FA
100
AcDbEntity
  8
OracDecor_panel_moldings
 62
    61
420
 14083225
100
AcDbVertex
100
AcDb2dVertex
 10
-8.613648414611816
 20
16.61694145202637
 30
-0.0000023942805001
  0
VERTEX
  5
139
330
FA
100
AcDbEntity
  8
OracDecor_panel_moldings
 62
    61
420
 14083225
100
AcDbVertex
100
AcDb2dVertex
 10
-8.443208694458007
 20
17.37284660339355
 30
-0.0000023942805001
  0
VERTEX
  5
13A
330
FA
100
AcDbEntity
  8
OracDecor_panel_moldings
 62
    61
420
 14083225
100
AcDbVertex
100
AcDb2dVertex
 10
-8.174939155578613
 20
17.95096206665039
 30
-0.0000023942805001
  0
VERTEX
  5
13B
330
FA
100
AcDbEntity
  8
OracDecor_panel_moldings
 62
    61
420
 14083225
100
AcDbVertex
100
AcDb2dVertex
 10
-7.81840705871582
 20
18.45842170715332
 30
-0.0000023942805001
  0
VERTEX
  5
13C
330
FA
100
AcDbEntity
  8
OracDecor_panel_moldings
 62
    61
420
 14083225
100
AcDbVertex
100
AcDb2dVertex
 10
-7.435646057128906
 20
18.88088035583496
 30
-0.0000023942805001
  0
VERTEX
  5
13D
330
FA
100
AcDbEntity
  8
OracDecor_panel_moldings
 62
    61
420
 14083225
100
AcDbVertex
100
AcDb2dVertex
 10
-6.942287445068359
 20
19.31733131408691
 30
-0.0000023942805001
  0
VERTEX
  5
13E
330
FA
100
AcDbEntity
  8
OracDecor_panel_moldings
 62
    61
420
 14083225
100
AcDbVertex
100
AcDb2dVertex
 10
-6.336380004882812
 20
19.75122261047363
 30
-0.0000023942805001
  0
VERTEX
  5
13F
330
FA
100
AcDbEntity
  8
OracDecor_panel_moldings
 62
    61
420
 14083225
100
AcDbVertex
100
AcDb2dVertex
 10
-5.619967460632324
 20
20.16844558715821
 30
-0.0000023942805001
  0
VERTEX
  5
140
330
FA
100
AcDbEntity
  8
OracDecor_panel_moldings
 62
    61
420
 14083225
100
AcDbVertex
100
AcDb2dVertex
 10
-4.82071304321289
 20
20.54452896118164
 30
-0.0000023942805001
  0
VERTEX
  5
141
330
FA
100
AcDbEntity
  8
OracDecor_panel_moldings
 62
    61
420
 14083225
100
AcDbVertex
100
AcDb2dVertex
 10
-4.169538497924804
 20
20.80083656311035
 30
-0.0000023942805001
  0
VERTEX
  5
142
330
FA
100
AcDbEntity
  8
OracDecor_panel_moldings
 62
    61
420
 14083225
100
AcDbVertex
100
AcDb2dVertex
 10
-4.147103309631347
 20
20.81699752807617
 30
-0.0000023942805001
  0
VERTEX
  5
143
330
FA
100
AcDbEntity
  8
OracDecor_panel_moldings
 62
    61
420
 14083225
100
AcDbVertex
100
AcDb2dVertex
 10
-4.136651039123535
 20
20.84259414672851
 30
-0.0000023942805001
  0
VERTEX
  5
144
330
FA
100
AcDbEntity
  8
OracDecor_panel_moldings
 62
    61
420
 14083225
100
AcDbVertex
100
AcDb2dVertex
 10
-4.031063079833984
 20
21.8286247253418
 30
-0.0000023942805001
  0
VERTEX
  5
145
330
FA
100
AcDbEntity
  8
OracDecor_panel_moldings
 62
    61
420
 14083225
100
AcDbVertex
100
AcDb2dVertex
 10
-4.006991386413574
 20
21.88361358642578
 30
-0.0000023942805001
  0
VERTEX
  5
146
330
FA
100
AcDbEntity
  8
OracDecor_panel_moldings
 62
    61
420
 14083225
100
AcDbVertex
100
AcDb2dVertex
 10
-3.955822944641113
 20
21.91500473022461
 30
-0.0000023942805001
  0
VERTEX
  5
147
330
FA
100
AcDbEntity
  8
OracDecor_panel_moldings
 62
    61
420
 14083225
100
AcDbVertex
100
AcDb2dVertex
 10
-3.605626106262207
 20
22.03254318237305
 30
-0.0000023942805001
  0
VERTEX
  5
148
330
FA
100
AcDbEntity
  8
OracDecor_panel_moldings
 62
    61
420
 14083225
100
AcDbVertex
100
AcDb2dVertex
 10
-3.27333116531372
 20
22.20685577392578
 30
-0.0000023942805001
  0
VERTEX
  5
149
330
FA
100
AcDbEntity
  8
OracDecor_panel_moldings
 62
    61
420
 14083225
100
AcDbVertex
100
AcDb2dVertex
 10
-2.952636241912841
 20
22.44613265991211
 30
-0.0000023942805001
  0
VERTEX
  5
14A
330
FA
100
AcDbEntity
  8
OracDecor_panel_moldings
 62
    61
420
 14083225
100
AcDbVertex
100
AcDb2dVertex
 10
-2.720952033996582
 20
22.67588806152344
 30
-0.0000023942805001
  0
VERTEX
  5
14B
330
FA
100
AcDbEntity
  8
OracDecor_panel_moldings
 62
    61
420
 14083225
100
AcDbVertex
100
AcDb2dVertex
 10
-2.428194999694824
 20
23.04547882080078
 30
-0.0000023942805001
  0
VERTEX
  5
14C
330
FA
100
AcDbEntity
  8
OracDecor_panel_moldings
 62
    61
420
 14083225
100
AcDbVertex
100
AcDb2dVertex
 10
-2.165686607360839
 20
23.48756790161133
 30
-0.0000023942805001
  0
VERTEX
  5
14D
330
FA
100
AcDbEntity
  8
OracDecor_panel_moldings
 62
    61
420
 14083225
100
AcDbVertex
100
AcDb2dVertex
 10
-1.948236465454101
 20
23.98112297058105
 30
-0.0000023942805001
  0
VERTEX
  5
14E
330
FA
100
AcDbEntity
  8
OracDecor_panel_moldings
 62
    61
420
 14083225
100
AcDbVertex
100
AcDb2dVertex
 10
-1.789841651916503
 20
24.49880218505859
 30
-0.0000023942805001
  0
VERTEX
  5
14F
330
FA
100
AcDbEntity
  8
OracDecor_panel_moldings
 62
    61
420
 14083225
100
AcDbVertex
100
AcDb2dVertex
 10
-1.709078311920166
 20
24.91239166259766
 30
-0.0000023942805001
  0
VERTEX
  5
150
330
FA
100
AcDbEntity
  8
OracDecor_panel_moldings
 62
    61
420
 14083225
100
AcDbVertex
100
AcDb2dVertex
 10
-1.67604112625122
 20
24.97510528564453
 30
-0.0000023942805001
  0
VERTEX
  5
151
330
FA
100
AcDbEntity
  8
OracDecor_panel_moldings
 62
    61
420
 14083225
100
AcDbVertex
100
AcDb2dVertex
 10
-1.609805107116699
 20
25.0003547668457
 30
-0.0000023942805001
  0
SEQEND
  5
152
330
FA
100
AcDbEntity
  8
OracDecor_panel_moldings
 62
    61
420
 14083225
  0
ENDSEC
  0
SECTION
  2
OBJECTS
  0
DICTIONARY
  5
C
330
0
100
AcDbDictionary
281
     1
  3
ACAD_COLOR
350
DC
  3
ACAD_DETAILVIEWSTYLE
350
F5
  3
ACAD_GROUP
350
D
  3
ACAD_LAYOUT
350
1A
  3
ACAD_MATERIAL
350
AA
  3
ACAD_MLEADERSTYLE
350
F1
  3
ACAD_MLINESTYLE
350
17
  3
ACAD_PLOTSETTINGS
350
19
  3
ACAD_PLOTSTYLENAME
350
E
  3
ACAD_SCALELIST
350
DF
  3
ACAD_SECTIONVIEWSTYLE
350
F3
  3
ACAD_TABLESTYLE
350
DD
  3
ACAD_VISUALSTYLE
350
C3
  3
ACDB_RECOMPOSE_DATA
350
15F
  3
AcDbVariableDictionary
350
153
  0
DICTIONARY
  5
DC
102
{ACAD_REACTORS
330
C
102
}
330
C
100
AcDbDictionary
281
     1
  0
DICTIONARY
  5
F5
102
{ACAD_REACTORS
330
C
102
}
330
C
100
AcDbDictionary
281
     1
  3
Imperial24
350
F6
  0
DICTIONARY
  5
D
102
{ACAD_REACTORS
330
C
102
}
330
C
100
AcDbDictionary
281
     1
  0
DICTIONARY
  5
1A
102
{ACAD_REACTORS
330
C
102
}
330
C
100
AcDbDictionary
281
     1
  3
Layout1
350
1E
  3
Layout2
350
26
  3
Model
350
22
  0
DICTIONARY
  5
AA
102
{ACAD_REACTORS
330
C
102
}
330
C
100
AcDbDictionary
281
     1
  3
ByBlock
350
B3
  3
ByLayer
350
AB
  3
Global
350
BB
  0
DICTIONARY
  5
F1
102
{ACAD_REACTORS
330
C
102
}
330
C
100
AcDbDictionary
281
     1
  3
Standard
350
F2
  0
DICTIONARY
  5
17
102
{ACAD_REACTORS
330
C
102
}
330
C
100
AcDbDictionary
281
     1
  3
Standard
350
18
  0
DICTIONARY
  5
19
102
{ACAD_REACTORS
330
C
102
}
330
C
100
AcDbDictionary
281
     1
  0
ACDBDICTIONARYWDFLT
  5
E
102
{ACAD_REACTORS
330
C
102
}
330
C
100
AcDbDictionary
281
     1
  3
ByLayer
350
2D
  3
Normal
350
F
100
AcDbDictionaryWithDefault
340
F
  0
DICTIONARY
  5
DF
102
{ACAD_REACTORS
330
C
102
}
330
C
100
AcDbDictionary
281
     1
  3
A0
350
E0
  3
A1
350
E1
  3
A2
350
E2
  3
A3
350
E3
  3
A4
350
E4
  3
A5
350
E5
  3
A6
350
E6
  3
A7
350
E7
  3
A8
350
E8
  3
A9
350
E9
  3
B0
350
EA
  3
B1
350
EB
  3
B2
350
EC
  3
B3
350
ED
  3
B4
350
EE
  3
B5
350
EF
  3
B6
350
F0
  0
DICTIONARY
  5
F3
102
{ACAD_REACTORS
330
C
102
}
330
C
100
AcDbDictionary
281
     1
  3
Imperial24
350
F4
  0
DICTIONARY
  5
DD
102
{ACAD_REACTORS
330
C
102
}
330
C
100
AcDbDictionary
281
     1
  3
Standard
350
DE
  0
DICTIONARY
  5
C3
102
{ACAD_REACTORS
330
C
102
}
330
C
100
AcDbDictionary
281
     1
  3
2dWireframe
350
C9
  3
Basic
350
C8
  3
Brighten
350
CF
  3
ColorChange
350
D3
  3
Conceptual
350
CC
  3
Dim
350
CE
  3
EdgeColorOff
350
DB
  3
Facepattern
350
D2
  3
Flat
350
C4
  3
FlatWithEdges
350
C5
  3
Gouraud
350
C6
  3
GouraudWithEdges
350
C7
  3
Hidden
350
CB
  3
JitterOff
350
D9
  3
Linepattern
350
D1
  3
OverhangOff
350
DA
  3
Realistic
350
CD
  3
Shaded
350
D8
  3
Shaded with edges
350
D7
  3
Shades of Gray
350
D4
  3
Sketchy
350
D5
  3
Thicken
350
D0
  3
Wireframe
350
CA
  3
X-Ray
350
D6
  0
XRECORD
  5
15F
102
{ACAD_REACTORS
330
C
102
}
330
C
100
AcDbXrecord
280
     1
 90
        1
330
DE
  0
DICTIONARY
  5
153
102
{ACAD_REACTORS
330
C
102
}
330
C
100
AcDbDictionary
281
     1
  3
CANNOSCALE
350
159
  3
CMLEADERSTYLE
350
155
  3
CTABLESTYLE
350
154
  3
CVIEWDETAILSTYLE
350
156
  3
CVIEWSECTIONSTYLE
350
157
  3
LAYEREVAL
350
15B
  3
LAYERNOTIFY
350
15C
  3
LIGHTINGUNITS
350
15A
  3
MSLTSCALE
350
158
  0
ACDBDETAILVIEWSTYLE
  5
F6
102
{ACAD_XDICTIONARY
360
194
102
}
102
{ACAD_REACTORS
330
F5
102
}
330
F5
100
AcDbModelDocViewStyle
 70
     0
  3
Imperial24
290
     0
100
AcDbDetailViewStyle
 70
     0
 71
     0
 90
        3
 71
     1
340
11
 62
   256
 40
0.24
340
0
 62
   256
 40
0.24
300

 40
0.36
280
     3
 71
     2
340
16
 90
       25
 62
   256
 71
     3
340
11
 62
   256
 40
0.24
 90
        1
 40
0.75
 90
        1
300
%<\AcVar ViewType \f "%tc1">% %<\AcVar ViewDetailId>%\PSCALE %<\AcVar ViewScale \f "%sn">%
 71
     4
340
16
 90
       25
 62
   256
340
16
 90
       25
 62
   256
280
     0
  0
LAYOUT
  5
1E
102
{ACAD_REACTORS
330
1A
102
}
330
1A
100
AcDbPlotSettings
  1

  2
\\KTXNTBDC\CASF2PN1
  4

  6

 40
0.0
 41
0.0
 42
0.0
 43
0.0
 44
0.0
 45
0.0
 46
0.0
 47
0.0
 48
0.0
 49
0.0
140
0.0
141
0.0
142
1.0
143
1.0
 70
   688
 72
     0
 73
     0
 74
     5
  7

 75
    16
147
1.0
 76
     0
 77
     2
 78
   300
148
0.0
149
0.0
100
AcDbLayout
  1
Layout1
 70
     1
 71
     1
 10
0.0
 20
0.0
 11
12.0
 21
9.0
 12
0.0
 22
0.0
 32
0.0
 14
1.000000000000000E+20
 24
1.000000000000000E+20
 34
1.000000000000000E+20
 15
-1.000000000000000E+20
 25
-1.000000000000000E+20
 35
-1.000000000000000E+20
146
0.0
 13
0.0
 23
0.0
 33
0.0
 16
1.0
 26
0.0
 36
0.0
 17
0.0
 27
1.0
 37
0.0
 76
     0
330
1B
  0
LAYOUT
  5
26
102
{ACAD_REACTORS
330
1A
102
}
330
1A
100
AcDbPlotSettings
  1

  2
\\KTXNTBDC\CASF2PN1
  4

  6

 40
0.0
 41
0.0
 42
0.0
 43
0.0
 44
0.0
 45
0.0
 46
0.0
 47
0.0
 48
0.0
 49
0.0
140
0.0
141
0.0
142
1.0
143
1.0
 70
   688
 72
     0
 73
     0
 74
     5
  7

 75
    16
147
1.0
 76
     0
 77
     2
 78
   300
148
0.0
149
0.0
100
AcDbLayout
  1
Layout2
 70
     1
 71
     2
 10
0.0
 20
0.0
 11
12.0
 21
9.0
 12
0.0
 22
0.0
 32
0.0
 14
0.0
 24
0.0
 34
0.0
 15
0.0
 25
0.0
 35
0.0
146
0.0
 13
0.0
 23
0.0
 33
0.0
 16
1.0
 26
0.0
 36
0.0
 17
0.0
 27
1.0
 37
0.0
 76
     0
330
23
  0
LAYOUT
  5
22
102
{ACAD_REACTORS
330
1A
102
}
330
1A
100
AcDbPlotSettings
  1

  2
\\KTXNTBDC\CASF2PN1
  4

  6

 40
0.0
 41
0.0
 42
0.0
 43
0.0
 44
0.0
 45
0.0
 46
0.0
 47
0.0
 48
0.0
 49
0.0
140
0.0
141
0.0
142
1.0
143
1.0
 70
  1712
 72
     0
 73
     0
 74
     0
  7

 75
     0
147
1.0
 76
     0
 77
     2
 78
   300
148
0.0
149
0.0
100
AcDbLayout
  1
Model
 70
     1
 71
     0
 10
0.0
 20
0.0
 11
12.0
 21
9.0
 12
0.0
 22
0.0
 32
0.0
 14
0.0
 24
0.0
 34
0.0
 15
0.0
 25
0.0
 35
0.0
146
0.0
 13
0.0
 23
0.0
 33
0.0
 16
1.0
 26
0.0
 36
0.0
 17
0.0
 27
1.0
 37
0.0
 76
     0
330
1F
  0
MATERIAL
  5
B3
102
{ACAD_XDICTIONARY
360
B4
102
}
102
{ACAD_REACTORS
330
AA
102
}
330
AA
100
AcDbMaterial
  1
ByBlock
 72
     0
 43
0.0208333333333333
 43
0.0
 43
0.0
 43
0.0
 43
0.0
 43
0.0208333333333333
 43
0.0
 43
0.0
 43
0.0
 43
0.0
 43
1.0
 43
0.0
 43
0.0
 43
0.0
 43
0.0
 43
1.0
 77
     0
 47
0.0208333333333333
 47
0.0
 47
0.0
 47
0.0
 47
0.0
 47
0.0208333333333333
 47
0.0
 47
0.0
 47
0.0
 47
0.0
 47
1.0
 47
0.0
 47
0.0
 47
0.0
 47
0.0
 47
1.0
171
     0
 49
0.0208333333333333
 49
0.0
 49
0.0
 49
0.0
 49
0.0
 49
0.0208333333333333
 49
0.0
 49
0.0
 49
0.0
 49
0.0
 49
1.0
 49
0.0
 49
0.0
 49
0.0
 49
0.0
 49
1.0
175
     0
142
0.0208333333333333
142
0.0
142
0.0
142
0.0
142
0.0
142
0.0208333333333333
142
0.0
142
0.0
142
0.0
142
0.0
142
1.0
142
0.0
142
0.0
142
0.0
142
0.0
142
1.0
179
     0
144
0.0208333333333333
144
0.0
144
0.0
144
0.0
144
0.0
144
0.0208333333333333
144
0.0
144
0.0
144
0.0
144
0.0
144
1.0
144
0.0
144
0.0
144
0.0
144
0.0
144
1.0
147
0.0208333333333333
147
0.0
147
0.0
147
0.0
147
0.0
147
0.0208333333333333
147
0.0
147
0.0
147
0.0
147
0.0
147
1.0
147
0.0
147
0.0
147
0.0
147
0.0
147
1.0
  0
MATERIAL
  5
AB
102
{ACAD_XDICTIONARY
360
AC
102
}
102
{ACAD_REACTORS
330
AA
102
}
330
AA
100
AcDbMaterial
  1
ByLayer
 72
     0
 43
0.0208333333333333
 43
0.0
 43
0.0
 43
0.0
 43
0.0
 43
0.0208333333333333
 43
0.0
 43
0.0
 43
0.0
 43
0.0
 43
1.0
 43
0.0
 43
0.0
 43
0.0
 43
0.0
 43
1.0
 77
     0
 47
0.0208333333333333
 47
0.0
 47
0.0
 47
0.0
 47
0.0
 47
0.0208333333333333
 47
0.0
 47
0.0
 47
0.0
 47
0.0
 47
1.0
 47
0.0
 47
0.0
 47
0.0
 47
0.0
 47
1.0
171
     0
 49
0.0208333333333333
 49
0.0
 49
0.0
 49
0.0
 49
0.0
 49
0.0208333333333333
 49
0.0
 49
0.0
 49
0.0
 49
0.0
 49
1.0
 49
0.0
 49
0.0
 49
0.0
 49
0.0
 49
1.0
175
     0
142
0.0208333333333333
142
0.0
142
0.0
142
0.0
142
0.0
142
0.0208333333333333
142
0.0
142
0.0
142
0.0
142
0.0
142
1.0
142
0.0
142
0.0
142
0.0
142
0.0
142
1.0
179
     0
144
0.0208333333333333
144
0.0
144
0.0
144
0.0
144
0.0
144
0.0208333333333333
144
0.0
144
0.0
144
0.0
144
0.0
144
1.0
144
0.0
144
0.0
144
0.0
144
0.0
144
1.0
147
0.0208333333333333
147
0.0
147
0.0
147
0.0
147
0.0
147
0.0208333333333333
147
0.0
147
0.0
147
0.0
147
0.0
147
1.0
147
0.0
147
0.0
147
0.0
147
0.0
147
1.0
  0
MATERIAL
  5
BB
102
{ACAD_XDICTIONARY
360
BC
102
}
102
{ACAD_REACTORS
330
AA
102
}
330
AA
100
AcDbMaterial
  1
Global
 72
     0
 43
0.0208333333333333
 43
0.0
 43
0.0
 43
0.0
 43
0.0
 43
0.0208333333333333
 43
0.0
 43
0.0
 43
0.0
 43
0.0
 43
1.0
 43
0.0
 43
0.0
 43
0.0
 43
0.0
 43
1.0
 77
     0
 47
0.0208333333333333
 47
0.0
 47
0.0
 47
0.0
 47
0.0
 47
0.0208333333333333
 47
0.0
 47
0.0
 47
0.0
 47
0.0
 47
1.0
 47
0.0
 47
0.0
 47
0.0
 47
0.0
 47
1.0
171
     0
 49
0.0208333333333333
 49
0.0
 49
0.0
 49
0.0
 49
0.0
 49
0.0208333333333333
 49
0.0
 49
0.0
 49
0.0
 49
0.0
 49
1.0
 49
0.0
 49
0.0
 49
0.0
 49
0.0
 49
1.0
175
     0
142
0.0208333333333333
142
0.0
142
0.0
142
0.0
142
0.0
142
0.0208333333333333
142
0.0
142
0.0
142
0.0
142
0.0
142
1.0
142
0.0
142
0.0
142
0.0
142
0.0
142
1.0
179
     0
144
0.0208333333333333
144
0.0
144
0.0
144
0.0
144
0.0
144
0.0208333333333333
144
0.0
144
0.0
144
0.0
144
0.0
144
1.0
144
0.0
144
0.0
144
0.0
144
0.0
144
1.0
147
0.0208333333333333
147
0.0
147
0.0
147
0.0
147
0.0
147
0.0208333333333333
147
0.0
147
0.0
147
0.0
147
0.0
147
1.0
147
0.0
147
0.0
147
0.0
147
0.0
147
1.0
  0
MLEADERSTYLE
  5
F2
102
{ACAD_XDICTIONARY
360
190
102
}
102
{ACAD_REACTORS
330
F1
102
}
330
F1
100
AcDbMLeaderStyle
179
     2
170
     2
171
     1
172
     0
 90
        2
 40
0.0
 41
0.0
173
     1
 91
-1056964608
340
14
 92
       -2
290
     1
 42
0.09
291
     1
 43
0.36
  3
Standard
 44
0.18
300

342
11
174
     1
178
     6
175
     1
176
     0
 93
-1056964608
 45
0.18
292
     0
297
     0
 46
0.18
 94
-1056964608
 47
1.0
 49
1.0
140
1.0
293
     1
141
0.0
294
     1
177
     0
142
1.0
295
     0
296
     0
143
0.125
271
     0
272
     9
273
     9
  0
MLINESTYLE
  5
18
102
{ACAD_REACTORS
330
17
102
}
330
17
100
AcDbMlineStyle
  2
STANDARD
 70
     0
  3

 62
   256
 51
90.0
 52
90.0
 71
     2
 49
0.5
 62
   256
  6
BYLAYER
 49
-0.5
 62
   256
  6
BYLAYER
  0
ACDBPLACEHOLDER
  5
2D
102
{ACAD_REACTORS
330
E
102
}
330
E
  0
ACDBPLACEHOLDER
  5
F
102
{ACAD_REACTORS
330
E
102
}
330
E
  0
SCALE
  5
E0
102
{ACAD_REACTORS
330
DF
102
}
330
DF
100
AcDbScale
 70
     0
300
1:1
140
1.0
141
1.0
290
     1
  0
SCALE
  5
E1
102
{ACAD_REACTORS
330
DF
102
}
330
DF
100
AcDbScale
 70
     0
300
1/128" = 1'-0"
140
0.0078125
141
12.0
290
     0
  0
SCALE
  5
E2
102
{ACAD_REACTORS
330
DF
102
}
330
DF
100
AcDbScale
 70
     0
300
1/64" = 1'-0"
140
0.015625
141
12.0
290
     0
  0
SCALE
  5
E3
102
{ACAD_REACTORS
330
DF
102
}
330
DF
100
AcDbScale
 70
     0
300
1/32" = 1'-0"
140
0.03125
141
12.0
290
     0
  0
SCALE
  5
E4
102
{ACAD_REACTORS
330
DF
102
}
330
DF
100
AcDbScale
 70
     0
300
1/16" = 1'-0"
140
0.0625
141
12.0
290
     0
  0
SCALE
  5
E5
102
{ACAD_REACTORS
330
DF
102
}
330
DF
100
AcDbScale
 70
     0
300
3/32" = 1'-0"
140
0.09375
141
12.0
290
     0
  0
SCALE
  5
E6
102
{ACAD_REACTORS
330
DF
102
}
330
DF
100
AcDbScale
 70
     0
300
1/8" = 1'-0"
140
0.125
141
12.0
290
     0
  0
SCALE
  5
E7
102
{ACAD_REACTORS
330
DF
102
}
330
DF
100
AcDbScale
 70
     0
300
3/16" = 1'-0"
140
0.1875
141
12.0
290
     0
  0
SCALE
  5
E8
102
{ACAD_REACTORS
330
DF
102
}
330
DF
100
AcDbScale
 70
     0
300
1/4" = 1'-0"
140
0.25
141
12.0
290
     0
  0
SCALE
  5
E9
102
{ACAD_REACTORS
330
DF
102
}
330
DF
100
AcDbScale
 70
     0
300
3/8" = 1'-0"
140
0.375
141
12.0
290
     0
  0
SCALE
  5
EA
102
{ACAD_REACTORS
330
DF
102
}
330
DF
100
AcDbScale
 70
     0
300
1/2" = 1'-0"
140
0.5
141
12.0
290
     0
  0
SCALE
  5
EB
102
{ACAD_REACTORS
330
DF
102
}
330
DF
100
AcDbScale
 70
     0
300
3/4" = 1'-0"
140
0.75
141
12.0
290
     0
  0
SCALE
  5
EC
102
{ACAD_REACTORS
330
DF
102
}
330
DF
100
AcDbScale
 70
     0
300
1" = 1'-0"
140
1.0
141
12.0
290
     0
  0
SCALE
  5
ED
102
{ACAD_REACTORS
330
DF
102
}
330
DF
100
AcDbScale
 70
     0
300
1-1/2" = 1'-0"
140
1.5
141
12.0
290
     0
  0
SCALE
  5
EE
102
{ACAD_REACTORS
330
DF
102
}
330
DF
100
AcDbScale
 70
     0
300
3" = 1'-0"
140
3.0
141
12.0
290
     0
  0
SCALE
  5
EF
102
{ACAD_REACTORS
330
DF
102
}
330
DF
100
AcDbScale
 70
     0
300
6" = 1'-0"
140
6.0
141
12.0
290
     0
  0
SCALE
  5
F0
102
{ACAD_REACTORS
330
DF
102
}
330
DF
100
AcDbScale
 70
     0
300
1'-0" = 1'-0"
140
12.0
141
12.0
290
     0
  0
ACDBSECTIONVIEWSTYLE
  5
F4
102
{ACAD_XDICTIONARY
360
192
102
}
102
{ACAD_REACTORS
330
F3
102
}
330
F3
100
AcDbModelDocViewStyle
 70
     0
  3
Imperial24
290
     0
100
AcDbSectionViewStyle
 70
     0
 71
     0
 90
       78
 71
     1
340
11
 62
   256
 40
0.24
340
0
340
0
 62
   256
 40
0.24
300
I, O, Q, S, X, Z
 40
0.48
 90
        3
 40
0.18
 90
        1
 71
     2
340
16
 90
       25
 62
   256
340
16
 90
       50
 62
   256
 40
0.24
 40
0.0
 40
0.24
 71
     3
340
11
 62
   256
 40
0.24
 90
        1
 40
0.75
 90
        1
300
%<\AcVar ViewType \f "%tc1">% %<\AcVar ViewSectionStartId>%-%<\AcVar ViewSectionEndId>%\PSCALE %<\AcVar ViewScale \f "%sn">%
 71
     4
 62
   256
 62
   257
300
ANSI31
 40
1.0
 90
        0
290
     0
290
     0
 90
        6
 40
0.0
 40
1.570796326794896
 40
0.2617993877991494
 40
1.308996938995747
 40
-0.2617993877991494
 40
1.832595714594046
  0
TABLESTYLE
  5
DE
102
{ACAD_XDICTIONARY
360
15D
102
}
102
{ACAD_REACTORS
330
DD
102
}
330
DD
100
AcDbTableStyle
280
     0
  3
Standard
 70
     0
 71
     0
 40
0.06
 41
0.06
280
     0
281
     0
  7
Standard
140
0.18
170
     2
 62
     0
 63
     7
283
     0
 90
      512
 91
        0
  1

274
    -2
284
     1
 64
     0
275
    -2
285
     1
 65
     0
276
    -2
286
     1
 66
     0
277
    -2
287
     1
 67
     0
278
    -2
288
     1
 68
     0
279
    -2
289
     1
 69
     0
  7
Standard
140
0.25
170
     5
 62
     0
 63
     7
283
     0
 90
      512
 91
        0
  1

274
    -2
284
     1
 64
     0
275
    -2
285
     1
 65
     0
276
    -2
286
     1
 66
     0
277
    -2
287
     1
 67
     0
278
    -2
288
     1
 68
     0
279
    -2
289
     1
 69
     0
  7
Standard
140
0.18
170
     5
 62
     0
 63
     7
283
     0
 90
      512
 91
        0
  1

274
    -2
284
     1
 64
     0
275
    -2
285
     1
 65
     0
276
    -2
286
     1
 66
     0
277
    -2
287
     1
 67
     0
278
    -2
288
     1
 68
     0
279
    -2
289
     1
 69
     0
  0
VISUALSTYLE
  5
C9
102
{ACAD_XDICTIONARY
360
16A
102
}
102
{ACAD_REACTORS
330
C3
102
}
330
C3
100
AcDbVisualStyle
  2
2dWireframe
 70
     4
177
     2
291
     0
 71
     0
176
     1
 72
     2
176
     1
 73
     0
176
     1
 90
        0
176
     1
 40
0.6
176
     1
 41
30.0
176
     1
 63
     7
421
 16777215
176
     1
 74
     1
176
     1
 91
        4
176
     1
 64
     7
176
     1
 65
   257
176
     1
 75
     1
176
     1
175
     1
176
     1
 42
1.0
176
     1
 92
        0
176
     1
 66
   257
176
     1
 43
1.0
176
     1
 76
     1
176
     1
 77
     6
176
     1
 78
     2
176
     1
 67
     7
176
     1
 79
     5
176
     1
170
     0
176
     1
171
     0
176
     1
290
     0
176
     1
 93
        1
176
     1
 44
0.0
176
     1
173
     0
176
     1
1001
ACAD
1000
AcDbSavedByObjectVersion
1070
     0
  0
VISUALSTYLE
  5
C8
102
{ACAD_XDICTIONARY
360
168
102
}
102
{ACAD_REACTORS
330
C3
102
}
330
C3
100
AcDbVisualStyle
  2
Basic
 70
     7
177
     2
291
     1
 71
     1
176
     1
 72
     0
176
     1
 73
     1
176
     1
 90
        0
176
     1
 40
0.6
176
     1
 41
30.0
176
     1
 63
     7
421
 16777215
176
     1
 74
     0
176
     1
 91
        4
176
     1
 64
     7
176
     1
 65
   257
176
     1
 75
     1
176
     1
175
     1
176
     1
 42
1.0
176
     1
 92
        8
176
     1
 66
     7
176
     1
 43
1.0
176
     1
 76
     1
176
     1
 77
     6
176
     1
 78
     2
176
     1
 67
     7
176
     1
 79
     5
176
     1
170
     0
176
     1
171
     0
176
     1
290
     0
176
     1
 93
        1
176
     1
 44
0.0
176
     1
173
     0
176
     1
1001
ACAD
1000
AcDbSavedByObjectVersion
1070
     0
  0
VISUALSTYLE
  5
CF
102
{ACAD_XDICTIONARY
360
176
102
}
102
{ACAD_REACTORS
330
C3
102
}
330
C3
100
AcDbVisualStyle
  2
Brighten
 70
    12
177
     2
291
     1
 71
     2
176
     1
 72
     2
176
     1
 73
     0
176
     1
 90
        0
176
     1
 40
0.6
176
     1
 41
30.0
176
     1
 63
     7
421
 16777215
176
     1
 74
     1
176
     1
 91
        4
176
     1
 64
     7
176
     1
 65
   257
176
     1
 75
     1
176
     1
175
     1
176
     1
 42
1.0
176
     1
 92
        8
176
     1
 66
     7
176
     1
 43
1.0
176
     1
 76
     1
176
     1
 77
     6
176
     1
 78
     2
176
     1
 67
     7
176
     1
 79
     5
176
     1
170
     0
176
     1
171
     0
176
     1
290
     0
176
     1
 93
        1
176
     1
 44
50.0
176
     1
173
     0
176
     1
1001
ACAD
1000
AcDbSavedByObjectVersion
1070
     0
  0
VISUALSTYLE
  5
D3
102
{ACAD_XDICTIONARY
360
17E
102
}
102
{ACAD_REACTORS
330
C3
102
}
330
C3
100
AcDbVisualStyle
  2
ColorChange
 70
    16
177
     2
291
     1
 71
     2
176
     1
 72
     2
176
     1
 73
     3
176
     1
 90
        0
176
     1
 40
0.6
176
     1
 41
30.0
176
     1
 63
     8
421
  8421504
176
     1
 74
     1
176
     1
 91
        4
176
     1
 64
     7
176
     1
 65
   257
176
     1
 75
     1
176
     1
175
     1
176
     1
 42
1.0
176
     1
 92
        8
176
     1
 66
     8
424
  8421504
176
     1
 43
1.0
176
     1
 76
     1
176
     1
 77
     6
176
     1
 78
     2
176
     1
 67
     7
176
     1
 79
     5
176
     1
170
     0
176
     1
171
     0
176
     1
290
     0
176
     1
 93
        1
176
     1
 44
0.0
176
     1
173
     0
176
     1
1001
ACAD
1000
AcDbSavedByObjectVersion
1070
     0
  0
VISUALSTYLE
  5
CC
102
{ACAD_XDICTIONARY
360
170
102
}
102
{ACAD_REACTORS
330
C3
102
}
330
C3
100
AcDbVisualStyle
  2
Conceptual
 70
     9
177
     2
291
     0
 71
     3
176
     1
 72
     2
176
     1
 73
     0
176
     1
 90
        0
176
     1
 40
0.6
176
     1
 41
30.0
176
     1
 63
     7
421
 16777215
176
     1
 74
     2
176
     1
 91
        2
176
     1
 64
     7
176
     1
 65
   257
176
     1
 75
     1
176
     1
175
     1
176
     1
 42
179.0
176
     1
 92
        8
176
     1
 66
     7
176
     1
 43
1.0
176
     1
 76
     1
176
     1
 77
     6
176
     1
 78
     2
176
     1
 67
     7
176
     1
 79
     3
176
     1
170
     0
176
     1
171
     0
176
     1
290
     0
176
     1
 93
        1
176
     1
 44
0.0
176
     1
173
     0
176
     1
1001
ACAD
1000
AcDbSavedByObjectVersion
1070
     0
  0
VISUALSTYLE
  5
CE
102
{ACAD_XDICTIONARY
360
174
102
}
102
{ACAD_REACTORS
330
C3
102
}
330
C3
100
AcDbVisualStyle
  2
Dim
 70
    11
177
     2
291
     1
 71
     2
176
     1
 72
     2
176
     1
 73
     0
176
     1
 90
        0
176
     1
 40
0.6
176
     1
 41
30.0
176
     1
 63
     7
421
 16777215
176
     1
 74
     1
176
     1
 91
        4
176
     1
 64
     7
176
     1
 65
   257
176
     1
 75
     1
176
     1
175
     1
176
     1
 42
1.0
176
     1
 92
        8
176
     1
 66
     7
176
     1
 43
1.0
176
     1
 76
     1
176
     1
 77
     6
176
     1
 78
     2
176
     1
 67
     7
176
     1
 79
     5
176
     1
170
     0
176
     1
171
     0
176
     1
290
     0
176
     1
 93
        1
176
     1
 44
-50.0
176
     1
173
     0
176
     1
1001
ACAD
1000
AcDbSavedByObjectVersion
1070
     0
  0
VISUALSTYLE
  5
DB
102
{ACAD_XDICTIONARY
360
18E
102
}
102
{ACAD_REACTORS
330
C3
102
}
330
C3
100
AcDbVisualStyle
  2
EdgeColorOff
 70
    22
177
     2
291
     1
 71
     2
176
     0
 72
     2
176
     0
 73
     0
176
     0
 90
        0
176
     0
 40
0.6
176
     0
 41
30.0
176
     0
 63
     7
421
 16777215
176
     0
 74
     1
176
     0
 91
        4
176
     0
 64
     7
176
     0
 65
   257
176
     0
 75
     1
176
     0
175
     1
176
     0
 42
1.0
176
     0
 92
        8
176
     2
 66
     7
176
     0
 43
1.0
176
     0
 76
     1
176
     0
 77
     6
176
     0
 78
     2
176
     0
 67
     7
176
     0
 79
     5
176
     0
170
     0
176
     0
171
     0
176
     0
290
     0
176
     0
 93
        1
176
     0
 44
0.0
176
     0
173
     0
176
     0
1001
ACAD
1000
AcDbSavedByObjectVersion
1070
     0
  0
VISUALSTYLE
  5
D2
102
{ACAD_XDICTIONARY
360
17C
102
}
102
{ACAD_REACTORS
330
C3
102
}
330
C3
100
AcDbVisualStyle
  2
Facepattern
 70
    15
177
     2
291
     1
 71
     2
176
     1
 72
     2
176
     1
 73
     0
176
     1
 90
        0
176
     1
 40
0.6
176
     1
 41
30.0
176
     1
 63
     7
421
 16777215
176
     1
 74
     1
176
     1
 91
        4
176
     1
 64
     7
176
     1
 65
   257
176
     1
 75
     1
176
     1
175
     1
176
     1
 42
1.0
176
     1
 92
        8
176
     1
 66
     7
176
     1
 43
1.0
176
     1
 76
     1
176
     1
 77
     6
176
     1
 78
     2
176
     1
 67
     7
176
     1
 79
     5
176
     1
170
     0
176
     1
171
     0
176
     1
290
     0
176
     1
 93
        1
176
     1
 44
0.0
176
     1
173
     0
176
     1
1001
ACAD
1000
AcDbSavedByObjectVersion
1070
     0
  0
VISUALSTYLE
  5
C4
102
{ACAD_XDICTIONARY
360
160
102
}
102
{ACAD_REACTORS
330
C3
102
}
330
C3
100
AcDbVisualStyle
  2
Flat
 70
     0
177
     2
291
     1
 71
     2
176
     1
 72
     1
176
     1
 73
     1
176
     1
 90
        2
176
     1
 40
0.6
176
     1
 41
30.0
176
     1
 63
     7
421
 16777215
176
     1
 74
     0
176
     1
 91
        0
176
     1
 64
     7
176
     1
 65
   257
176
     1
 75
     1
176
     1
175
     1
176
     1
 42
1.0
176
     1
 92
        8
176
     1
 66
     7
176
     1
 43
1.0
176
     1
 76
     1
176
     1
 77
     6
176
     1
 78
     2
176
     1
 67
     7
176
     1
 79
     5
176
     1
170
     0
176
     1
171
     0
176
     1
290
     0
176
     1
 93
       13
176
     1
 44
0.0
176
     1
173
     0
176
     1
1001
ACAD
1000
AcDbSavedByObjectVersion
1070
     0
  0
VISUALSTYLE
  5
C5
102
{ACAD_XDICTIONARY
360
162
102
}
102
{ACAD_REACTORS
330
C3
102
}
330
C3
100
AcDbVisualStyle
  2
FlatWithEdges
 70
     1
177
     2
291
     1
 71
     2
176
     1
 72
     1
176
     1
 73
     1
176
     1
 90
        2
176
     1
 40
0.6
176
     1
 41
30.0
176
     1
 63
     7
421
 16777215
176
     1
 74
     1
176
     1
 91
        0
176
     1
 64
     7
176
     1
 65
   257
176
     1
 75
     1
176
     1
175
     1
176
     1
 42
1.0
176
     1
 92
        0
176
     1
 66
   257
176
     1
 43
1.0
176
     1
 76
     1
176
     1
 77
     6
176
     1
 78
     2
176
     1
 67
     7
176
     1
 79
     5
176
     1
170
     0
176
     1
171
     0
176
     1
290
     0
176
     1
 93
       13
176
     1
 44
0.0
176
     1
173
     0
176
     1
1001
ACAD
1000
AcDbSavedByObjectVersion
1070
     0
  0
VISUALSTYLE
  5
C6
102
{ACAD_XDICTIONARY
360
164
102
}
102
{ACAD_REACTORS
330
C3
102
}
330
C3
100
AcDbVisualStyle
  2
Gouraud
 70
     2
177
     2
291
     1
 71
     2
176
     1
 72
     2
176
     1
 73
     1
176
     1
 90
        2
176
     1
 40
0.6
176
     1
 41
30.0
176
     1
 63
     7
421
 16777215
176
     1
 74
     0
176
     1
 91
        0
176
     1
 64
     7
176
     1
 65
   257
176
     1
 75
     1
176
     1
175
     1
176
     1
 42
1.0
176
     1
 92
        0
176
     1
 66
     7
176
     1
 43
1.0
176
     1
 76
     1
176
     1
 77
     6
176
     1
 78
     2
176
     1
 67
     7
176
     1
 79
     5
176
     1
170
     0
176
     1
171
     0
176
     1
290
     0
176
     1
 93
       13
176
     1
 44
0.0
176
     1
173
     0
176
     1
1001
ACAD
1000
AcDbSavedByObjectVersion
1070
     0
  0
VISUALSTYLE
  5
C7
102
{ACAD_XDICTIONARY
360
166
102
}
102
{ACAD_REACTORS
330
C3
102
}
330
C3
100
AcDbVisualStyle
  2
GouraudWithEdges
 70
     3
177
     2
291
     1
 71
     2
176
     1
 72
     2
176
     1
 73
     1
176
     1
 90
        2
176
     1
 40
0.6
176
     1
 41
30.0
176
     1
 63
     7
421
 16777215
176
     1
 74
     1
176
     1
 91
        0
176
     1
 64
     7
176
     1
 65
   257
176
     1
 75
     1
176
     1
175
     1
176
     1
 42
1.0
176
     1
 92
        0
176
     1
 66
   257
176
     1
 43
1.0
176
     1
 76
     1
176
     1
 77
     6
176
     1
 78
     2
176
     1
 67
     7
176
     1
 79
     5
176
     1
170
     0
176
     1
171
     0
176
     1
290
     0
176
     1
 93
       13
176
     1
 44
0.0
176
     1
173
     0
176
     1
1001
ACAD
1000
AcDbSavedByObjectVersion
1070
     0
  0
VISUALSTYLE
  5
CB
102
{ACAD_XDICTIONARY
360
16E
102
}
102
{ACAD_REACTORS
330
C3
102
}
330
C3
100
AcDbVisualStyle
  2
Hidden
 70
     6
177
     2
291
     0
 71
     1
176
     1
 72
     2
176
     1
 73
     2
176
     1
 90
        0
176
     1
 40
0.6
176
     1
 41
30.0
176
     1
 63
     7
421
 16777215
176
     1
 74
     2
176
     1
 91
        2
176
     1
 64
     7
176
     1
 65
   257
176
     1
 75
     2
176
     1
175
     1
176
     1
 42
40.0
176
     1
 92
        0
176
     1
 66
   257
176
     1
 43
1.0
176
     1
 76
     1
176
     1
 77
     6
176
     1
 78
     2
176
     1
 67
     7
176
     1
 79
     3
176
     1
170
     0
176
     1
171
     0
176
     1
290
     0
176
     1
 93
        1
176
     1
 44
0.0
176
     1
173
     0
176
     1
1001
ACAD
1000
AcDbSavedByObjectVersion
1070
     0
  0
VISUALSTYLE
  5
D9
102
{ACAD_XDICTIONARY
360
18A
102
}
102
{ACAD_REACTORS
330
C3
102
}
330
C3
100
AcDbVisualStyle
  2
JitterOff
 70
    20
177
     2
291
     1
 71
     2
176
     0
 72
     2
176
     0
 73
     0
176
     0
 90
        0
176
     0
 40
0.6
176
     0
 41
30.0
176
     0
 63
     7
421
 16777215
176
     0
 74
     1
176
     0
 91
        4
176
     0
 64
     7
176
     0
 65
   257
176
     0
 75
     1
176
     0
175
     1
176
     0
 42
1.0
176
     0
 92
       10
176
     2
 66
     7
176
     0
 43
1.0
176
     0
 76
     1
176
     0
 77
     6
176
     0
 78
     2
176
     0
 67
     7
176
     0
 79
     5
176
     0
170
     0
176
     0
171
     0
176
     0
290
     0
176
     0
 93
        1
176
     0
 44
0.0
176
     0
173
     0
176
     0
1001
ACAD
1000
AcDbSavedByObjectVersion
1070
     0
  0
VISUALSTYLE
  5
D1
102
{ACAD_XDICTIONARY
360
17A
102
}
102
{ACAD_REACTORS
330
C3
102
}
330
C3
100
AcDbVisualStyle
  2
Linepattern
 70
    14
177
     2
291
     1
 71
     2
176
     1
 72
     2
176
     1
 73
     0
176
     1
 90
        0
176
     1
 40
0.6
176
     1
 41
30.0
176
     1
 63
     7
421
 16777215
176
     1
 74
     1
176
     1
 91
        4
176
     1
 64
     7
176
     1
 65
   257
176
     1
 75
     7
176
     1
175
     7
176
     1
 42
1.0
176
     1
 92
        8
176
     1
 66
     7
176
     1
 43
1.0
176
     1
 76
     1
176
     1
 77
     6
176
     1
 78
     2
176
     1
 67
     7
176
     1
 79
     5
176
     1
170
     0
176
     1
171
     0
176
     1
290
     0
176
     1
 93
        1
176
     1
 44
0.0
176
     1
173
     0
176
     1
1001
ACAD
1000
AcDbSavedByObjectVersion
1070
     0
  0
VISUALSTYLE
  5
DA
102
{ACAD_XDICTIONARY
360
18C
102
}
102
{ACAD_REACTORS
330
C3
102
}
330
C3
100
AcDbVisualStyle
  2
OverhangOff
 70
    21
177
     2
291
     1
 71
     2
176
     0
 72
     2
176
     0
 73
     0
176
     0
 90
        0
176
     0
 40
0.6
176
     0
 41
30.0
176
     0
 63
     7
421
 16777215
176
     0
 74
     1
176
     0
 91
        4
176
     0
 64
     7
176
     0
 65
   257
176
     0
 75
     1
176
     0
175
     1
176
     0
 42
1.0
176
     0
 92
        9
176
     2
 66
     7
176
     0
 43
1.0
176
     0
 76
     1
176
     0
 77
     6
176
     0
 78
     2
176
     0
 67
     7
176
     0
 79
     5
176
     0
170
     0
176
     0
171
     0
176
     0
290
     0
176
     0
 93
        1
176
     0
 44
0.0
176
     0
173
     0
176
     0
1001
ACAD
1000
AcDbSavedByObjectVersion
1070
     0
  0
VISUALSTYLE
  5
CD
102
{ACAD_XDICTIONARY
360
172
102
}
102
{ACAD_REACTORS
330
C3
102
}
330
C3
100
AcDbVisualStyle
  2
Realistic
 70
     8
177
     2
291
     0
 71
     2
176
     1
 72
     3
176
     1
 73
     0
176
     1
 90
        2
176
     1
 40
0.6
176
     1
 41
30.0
176
     1
 63
     7
421
 16777215
176
     1
 74
     0
176
     1
 91
        0
176
     1
 64
     7
176
     1
 65
   257
176
     1
 75
     1
176
     1
175
     1
176
     1
 42
1.0
176
     1
 92
        8
176
     1
 66
   257
176
     1
 43
1.0
176
     1
 76
     1
176
     1
 77
     6
176
     1
 78
     2
176
     1
 67
     7
176
     1
 79
     3
176
     1
170
     0
176
     1
171
     0
176
     1
290
     0
176
     1
 93
       13
176
     1
 44
0.0
176
     1
173
     0
176
     1
1001
ACAD
1000
AcDbSavedByObjectVersion
1070
     0
  0
VISUALSTYLE
  5
D8
102
{ACAD_XDICTIONARY
360
188
102
}
102
{ACAD_REACTORS
330
C3
102
}
330
C3
100
AcDbVisualStyle
  2
Shaded
 70
    27
177
     2
291
     0
 71
     2
176
     1
 72
     2
176
     1
 73
     1
176
     1
 90
        2
176
     1
 40
0.6
176
     1
 41
30.0
176
     1
 63
     7
421
 16777215
176
     1
 74
     0
176
     1
 91
        4
176
     1
 64
     7
176
     1
 65
   257
176
     1
 75
     1
176
     1
175
     1
176
     1
 42
1.0
176
     1
 92
        8
176
     1
 66
   257
176
     1
 43
1.0
176
     1
 76
     1
176
     1
 77
     6
176
     1
 78
     2
176
     1
 67
     8
425
  7895160
176
     1
 79
     3
176
     1
170
     0
176
     1
171
     0
176
     1
290
     0
176
     1
 93
        5
176
     1
 44
0.0
176
     1
173
     0
176
     1
1001
ACAD
1000
AcDbSavedByObjectVersion
1070
     0
  0
VISUALSTYLE
  5
D7
102
{ACAD_XDICTIONARY
360
186
102
}
102
{ACAD_REACTORS
330
C3
102
}
330
C3
100
AcDbVisualStyle
  2
Shaded with edges
 70
    26
177
     2
291
     0
 71
     2
176
     1
 72
     2
176
     1
 73
     1
176
     1
 90
        2
176
     1
 40
0.6
176
     1
 41
30.0
176
     1
 63
     7
421
 16777215
176
     1
 74
     1
176
     1
 91
       10
176
     1
 64
     7
176
     1
 65
   257
176
     1
 75
     2
176
     1
175
     1
176
     1
 42
1.0
176
     1
 92
        8
176
     1
 66
   257
176
     1
 43
1.0
176
     1
 76
     1
176
     1
 77
     6
176
     1
 78
     2
176
     1
 67
     7
176
     1
 79
     3
176
     1
170
     0
176
     1
171
     0
176
     1
290
     0
176
     1
 93
        5
176
     1
 44
0.0
176
     1
173
     0
176
     1
1001
ACAD
1000
AcDbSavedByObjectVersion
1070
     0
  0
VISUALSTYLE
  5
D4
102
{ACAD_XDICTIONARY
360
180
102
}
102
{ACAD_REACTORS
330
C3
102
}
330
C3
100
AcDbVisualStyle
  2
Shades of Gray
 70
    23
177
     2
291
     0
 71
     2
176
     1
 72
     2
176
     1
 73
     3
176
     1
 90
        0
176
     1
 40
0.6
176
     1
 41
30.0
176
     1
 63
     7
421
 16777215
176
     1
 74
     2
176
     1
 91
        2
176
     1
 64
     7
176
     1
 65
     7
176
     1
 75
     1
176
     1
175
     1
176
     1
 42
40.0
176
     1
 92
        8
176
     1
 66
     7
176
     1
 43
1.0
176
     1
 76
     1
176
     1
 77
     6
176
     1
 78
     2
176
     1
 67
     7
176
     1
 79
     3
176
     1
170
     0
176
     1
171
     0
176
     1
290
     0
176
     1
 93
        1
176
     1
 44
0.0
176
     1
173
     0
176
     1
1001
ACAD
1000
AcDbSavedByObjectVersion
1070
     0
  0
VISUALSTYLE
  5
D5
102
{ACAD_XDICTIONARY
360
182
102
}
102
{ACAD_REACTORS
330
C3
102
}
330
C3
100
AcDbVisualStyle
  2
Sketchy
 70
    24
177
     2
291
     0
 71
     1
176
     1
 72
     2
176
     1
 73
     2
176
     1
 90
        0
176
     1
 40
0.6
176
     1
 41
30.0
176
     1
 63
     7
421
 16777215
176
     1
 74
     2
176
     1
 91
        2
176
     1
 64
     7
176
     1
 65
     7
176
     1
 75
     1
176
     1
175
     1
176
     1
 42
40.0
176
     1
 92
       11
176
     1
 66
     7
176
     1
 43
1.0
176
     1
 76
     1
176
     1
 77
     6
176
     1
 78
     2
176
     1
 67
     7
176
     1
 79
     6
176
     1
170
     0
176
     1
171
     0
176
     1
290
     0
176
     1
 93
        1
176
     1
 44
0.0
176
     1
173
     0
176
     1
1001
ACAD
1000
AcDbSavedByObjectVersion
1070
     0
  0
VISUALSTYLE
  5
D0
102
{ACAD_XDICTIONARY
360
178
102
}
102
{ACAD_REACTORS
330
C3
102
}
330
C3
100
AcDbVisualStyle
  2
Thicken
 70
    13
177
     2
291
     1
 71
     2
176
     1
 72
     2
176
     1
 73
     0
176
     1
 90
        0
176
     1
 40
0.6
176
     1
 41
30.0
176
     1
 63
     7
421
 16777215
176
     1
 74
     1
176
     1
 91
        4
176
     1
 64
     7
176
     1
 65
   257
176
     1
 75
     1
176
     1
175
     1
176
     1
 42
1.0
176
     1
 92
       12
176
     1
 66
     7
176
     1
 43
1.0
176
     1
 76
     1
176
     1
 77
     6
176
     1
 78
     2
176
     1
 67
     7
176
     1
 79
     5
176
     1
170
     0
176
     1
171
     0
176
     1
290
     0
176
     1
 93
        1
176
     1
 44
0.0
176
     1
173
     0
176
     1
1001
ACAD
1000
AcDbSavedByObjectVersion
1070
     0
  0
VISUALSTYLE
  5
CA
102
{ACAD_XDICTIONARY
360
16C
102
}
102
{ACAD_REACTORS
330
C3
102
}
330
C3
100
AcDbVisualStyle
  2
Wireframe
 70
     5
177
     2
291
     0
 71
     0
176
     1
 72
     2
176
     1
 73
     0
176
     1
 90
        0
176
     1
 40
0.6
176
     1
 41
30.0
176
     1
 63
     7
421
 16777215
176
     1
 74
     1
176
     1
 91
        4
176
     1
 64
     7
176
     1
 65
   257
176
     1
 75
     1
176
     1
175
     1
176
     1
 42
1.0
176
     1
 92
        0
176
     1
 66
   257
176
     1
 43
1.0
176
     1
 76
     1
176
     1
 77
     6
176
     1
 78
     2
176
     1
 67
     7
176
     1
 79
     3
176
     1
170
     0
176
     1
171
     0
176
     1
290
     0
176
     1
 93
        1
176
     1
 44
0.0
176
     1
173
     0
176
     1
1001
ACAD
1000
AcDbSavedByObjectVersion
1070
     0
  0
VISUALSTYLE
  5
D6
102
{ACAD_XDICTIONARY
360
184
102
}
102
{ACAD_REACTORS
330
C3
102
}
330
C3
100
AcDbVisualStyle
  2
X-Ray
 70
    25
177
     2
291
     0
 71
     2
176
     1
 72
     2
176
     1
 73
     1
176
     1
 90
        1
176
     1
 40
0.5
176
     1
 41
30.0
176
     1
 63
     7
421
 16777215
176
     1
 74
     1
176
     1
 91
        0
176
     1
 64
     7
176
     1
 65
   257
176
     1
 75
     1
176
     1
175
     1
176
     1
 42
1.0
176
     1
 92
        8
176
     1
 66
     7
176
     1
 43
1.0
176
     1
 76
     1
176
     1
 77
     6
176
     1
 78
     2
176
     1
 67
     7
176
     1
 79
     3
176
     1
170
     0
176
     1
171
     0
176
     1
290
     0
176
     1
 93
       13
176
     1
 44
0.0
176
     1
173
     0
176
     1
1001
ACAD
1000
AcDbSavedByObjectVersion
1070
     0
  0
DICTIONARYVAR
  5
159
102
{ACAD_REACTORS
330
153
102
}
330
153
100
DictionaryVariables
280
     0
  1
1:1
  0
DICTIONARYVAR
  5
155
102
{ACAD_REACTORS
330
153
102
}
330
153
100
DictionaryVariables
280
     0
  1
STANDARD
  0
DICTIONARYVAR
  5
154
102
{ACAD_REACTORS
330
153
102
}
330
153
100
DictionaryVariables
280
     0
  1
STANDARD
  0
DICTIONARYVAR
  5
156
102
{ACAD_REACTORS
330
153
102
}
330
153
100
DictionaryVariables
280
     0
  1
Imperial24
  0
DICTIONARYVAR
  5
157
102
{ACAD_REACTORS
330
153
102
}
330
153
100
DictionaryVariables
280
     0
  1
Imperial24
  0
DICTIONARYVAR
  5
15B
102
{ACAD_REACTORS
330
153
102
}
330
153
100
DictionaryVariables
280
     0
  1
1
  0
DICTIONARYVAR
  5
15C
102
{ACAD_REACTORS
330
153
102
}
330
153
100
DictionaryVariables
280
     0
  1
15
  0
DICTIONARYVAR
  5
15A
102
{ACAD_REACTORS
330
153
102
}
330
153
100
DictionaryVariables
280
     0
  1
0
  0
DICTIONARYVAR
  5
158
102
{ACAD_REACTORS
330
153
102
}
330
153
100
DictionaryVariables
280
     0
  1
0
  0
DICTIONARY
  5
194
330
F6
100
AcDbDictionary
280
     1
281
     1
  3
ACAD_XREC_ROUNDTRIP
360
195
  0
DICTIONARY
  5
B4
330
B3
100
AcDbDictionary
280
     1
281
     1
  3
BUMPTILE
360
B6
  3
DIFFUSETILE
360
B5
  3
OPACITYTILE
360
B9
  3
REFLECTIONTILE
360
B8
  3
REFRACTIONTILE
360
BA
  3
SPECULARTILE
360
B7
  0
DICTIONARY
  5
AC
330
AB
100
AcDbDictionary
280
     1
281
     1
  3
BUMPTILE
360
AE
  3
DIFFUSETILE
360
AD
  3
OPACITYTILE
360
B1
  3
REFLECTIONTILE
360
B0
  3
REFRACTIONTILE
360
B2
  3
SPECULARTILE
360
AF
  0
DICTIONARY
  5
BC
330
BB
100
AcDbDictionary
280
     1
281
     1
  3
BUMPTILE
360
BE
  3
DIFFUSETILE
360
BD
  3
OPACITYTILE
360
C1
  3
REFLECTIONTILE
360
C0
  3
REFRACTIONTILE
360
C2
  3
SPECULARTILE
360
BF
  0
DICTIONARY
  5
190
330
F2
100
AcDbDictionary
280
     1
281
     1
  3
ACAD_XREC_ROUNDTRIP
360
191
  0
DICTIONARY
  5
192
330
F4
100
AcDbDictionary
280
     1
281
     1
  3
ACAD_XREC_ROUNDTRIP
360
193
  0
DICTIONARY
  5
15D
330
DE
100
AcDbDictionary
280
     1
281
     1
  3
ACAD_ROUNDTRIP_2008_TABLESTYLE_CELLSTYLEMAP
360
15E
  0
DICTIONARY
  5
16A
330
C9
100
AcDbDictionary
280
     1
281
     1
  3
ACAD_XREC_ROUNDTRIP
360
16B
  0
DICTIONARY
  5
168
330
C8
100
AcDbDictionary
280
     1
281
     1
  3
ACAD_XREC_ROUNDTRIP
360
169
  0
DICTIONARY
  5
176
330
CF
100
AcDbDictionary
280
     1
281
     1
  3
ACAD_XREC_ROUNDTRIP
360
177
  0
DICTIONARY
  5
17E
330
D3
100
AcDbDictionary
280
     1
281
     1
  3
ACAD_XREC_ROUNDTRIP
360
17F
  0
DICTIONARY
  5
170
330
CC
100
AcDbDictionary
280
     1
281
     1
  3
ACAD_XREC_ROUNDTRIP
360
171
  0
DICTIONARY
  5
174
330
CE
100
AcDbDictionary
280
     1
281
     1
  3
ACAD_XREC_ROUNDTRIP
360
175
  0
DICTIONARY
  5
18E
330
DB
100
AcDbDictionary
280
     1
281
     1
  3
ACAD_XREC_ROUNDTRIP
360
18F
  0
DICTIONARY
  5
17C
330
D2
100
AcDbDictionary
280
     1
281
     1
  3
ACAD_XREC_ROUNDTRIP
360
17D
  0
DICTIONARY
  5
160
330
C4
100
AcDbDictionary
280
     1
281
     1
  3
ACAD_XREC_ROUNDTRIP
360
161
  0
DICTIONARY
  5
162
330
C5
100
AcDbDictionary
280
     1
281
     1
  3
ACAD_XREC_ROUNDTRIP
360
163
  0
DICTIONARY
  5
164
330
C6
100
AcDbDictionary
280
     1
281
     1
  3
ACAD_XREC_ROUNDTRIP
360
165
  0
DICTIONARY
  5
166
330
C7
100
AcDbDictionary
280
     1
281
     1
  3
ACAD_XREC_ROUNDTRIP
360
167
  0
DICTIONARY
  5
16E
330
CB
100
AcDbDictionary
280
     1
281
     1
  3
ACAD_XREC_ROUNDTRIP
360
16F
  0
DICTIONARY
  5
18A
330
D9
100
AcDbDictionary
280
     1
281
     1
  3
ACAD_XREC_ROUNDTRIP
360
18B
  0
DICTIONARY
  5
17A
330
D1
100
AcDbDictionary
280
     1
281
     1
  3
ACAD_XREC_ROUNDTRIP
360
17B
  0
DICTIONARY
  5
18C
330
DA
100
AcDbDictionary
280
     1
281
     1
  3
ACAD_XREC_ROUNDTRIP
360
18D
  0
DICTIONARY
  5
172
330
CD
100
AcDbDictionary
280
     1
281
     1
  3
ACAD_XREC_ROUNDTRIP
360
173
  0
DICTIONARY
  5
188
330
D8
100
AcDbDictionary
280
     1
281
     1
  3
ACAD_XREC_ROUNDTRIP
360
189
  0
DICTIONARY
  5
186
330
D7
100
AcDbDictionary
280
     1
281
     1
  3
ACAD_XREC_ROUNDTRIP
360
187
  0
DICTIONARY
  5
180
330
D4
100
AcDbDictionary
280
     1
281
     1
  3
ACAD_XREC_ROUNDTRIP
360
181
  0
DICTIONARY
  5
182
330
D5
100
AcDbDictionary
280
     1
281
     1
  3
ACAD_XREC_ROUNDTRIP
360
183
  0
DICTIONARY
  5
178
330
D0
100
AcDbDictionary
280
     1
281
     1
  3
ACAD_XREC_ROUNDTRIP
360
179
  0
DICTIONARY
  5
16C
330
CA
100
AcDbDictionary
280
     1
281
     1
  3
ACAD_XREC_ROUNDTRIP
360
16D
  0
DICTIONARY
  5
184
330
D6
100
AcDbDictionary
280
     1
281
     1
  3
ACAD_XREC_ROUNDTRIP
360
185
  0
XRECORD
  5
195
102
{ACAD_REACTORS
330
194
102
}
330
194
100
AcDbXrecord
280
     1
102
DISPLAYNAME
  1
Imperial24
102
FLAGS
 90
        0
  0
XRECORD
  5
B6
102
{ACAD_REACTORS
330
B4
102
}
330
B4
100
AcDbXrecord
280
     1
270
     1
271
     1
  0
XRECORD
  5
B5
102
{ACAD_REACTORS
330
B4
102
}
330
B4
100
AcDbXrecord
280
     1
270
     1
271
     1
  0
XRECORD
  5
B9
102
{ACAD_REACTORS
330
B4
102
}
330
B4
100
AcDbXrecord
280
     1
270
     1
271
     1
  0
XRECORD
  5
B8
102
{ACAD_REACTORS
330
B4
102
}
330
B4
100
AcDbXrecord
280
     1
270
     1
271
     1
  0
XRECORD
  5
BA
102
{ACAD_REACTORS
330
B4
102
}
330
B4
100
AcDbXrecord
280
     1
270
     1
271
     1
  0
XRECORD
  5
B7
102
{ACAD_REACTORS
330
B4
102
}
330
B4
100
AcDbXrecord
280
     1
270
     1
271
     1
  0
XRECORD
  5
AE
102
{ACAD_REACTORS
330
AC
102
}
330
AC
100
AcDbXrecord
280
     1
270
     1
271
     1
  0
XRECORD
  5
AD
102
{ACAD_REACTORS
330
AC
102
}
330
AC
100
AcDbXrecord
280
     1
270
     1
271
     1
  0
XRECORD
  5
B1
102
{ACAD_REACTORS
330
AC
102
}
330
AC
100
AcDbXrecord
280
     1
270
     1
271
     1
  0
XRECORD
  5
B0
102
{ACAD_REACTORS
330
AC
102
}
330
AC
100
AcDbXrecord
280
     1
270
     1
271
     1
  0
XRECORD
  5
B2
102
{ACAD_REACTORS
330
AC
102
}
330
AC
100
AcDbXrecord
280
     1
270
     1
271
     1
  0
XRECORD
  5
AF
102
{ACAD_REACTORS
330
AC
102
}
330
AC
100
AcDbXrecord
280
     1
270
     1
271
     1
  0
XRECORD
  5
BE
102
{ACAD_REACTORS
330
BC
102
}
330
BC
100
AcDbXrecord
280
     1
270
     1
271
     1
  0
XRECORD
  5
BD
102
{ACAD_REACTORS
330
BC
102
}
330
BC
100
AcDbXrecord
280
     1
270
     1
271
     1
  0
XRECORD
  5
C1
102
{ACAD_REACTORS
330
BC
102
}
330
BC
100
AcDbXrecord
280
     1
270
     1
271
     1
  0
XRECORD
  5
C0
102
{ACAD_REACTORS
330
BC
102
}
330
BC
100
AcDbXrecord
280
     1
270
     1
271
     1
  0
XRECORD
  5
C2
102
{ACAD_REACTORS
330
BC
102
}
330
BC
100
AcDbXrecord
280
     1
270
     1
271
     1
  0
XRECORD
  5
BF
102
{ACAD_REACTORS
330
BC
102
}
330
BC
100
AcDbXrecord
280
     1
270
     1
271
     1
  0
XRECORD
  5
191
102
{ACAD_REACTORS
330
190
102
}
330
190
100
AcDbXrecord
280
     1
102
ACAD_ROUNDTRIP_2012_MLEADER_STYLE
298
     1
  0
XRECORD
  5
193
102
{ACAD_REACTORS
330
192
102
}
330
192
100
AcDbXrecord
280
     1
102
DISPLAYNAME
  1
Imperial24
102
FLAGS
 90
        0
  0
CELLSTYLEMAP
  5
15E
102
{ACAD_REACTORS
330
15D
102
}
330
15D
100
AcDbCellStyleMap
 90
        3
300
CELLSTYLE
  1
TABLEFORMAT_BEGIN
 90
        5
170
     1
 91
        0
 92
    32768
 62
   257
 93
        1
300
CONTENTFORMAT
  1
CONTENTFORMAT_BEGIN
 90
        0
 91
        0
 92
      512
 93
        0
300

 40
0.0
140
1.0
 94
        5
 62
     0
340
11
144
0.25
309
CONTENTFORMAT_END
171
     0
 94
        0
309
TABLEFORMAT_END
  1
CELLSTYLE_BEGIN
 90
        1
 91
        1
300
_TITLE
309
CELLSTYLE_END
300
CELLSTYLE
  1
TABLEFORMAT_BEGIN
 90
        5
170
     1
 91
        0
 92
        0
 62
   257
 93
        1
300
CONTENTFORMAT
  1
CONTENTFORMAT_BEGIN
 90
        0
 91
        0
 92
      512
 93
        0
300

 40
0.0
140
1.0
 94
        5
 62
     0
340
11
144
0.18
309
CONTENTFORMAT_END
171
     0
 94
        0
309
TABLEFORMAT_END
  1
CELLSTYLE_BEGIN
 90
        2
 91
        1
300
_HEADER
309
CELLSTYLE_END
300
CELLSTYLE
  1
TABLEFORMAT_BEGIN
 90
        5
170
     1
 91
        0
 92
        0
 62
   257
 93
        1
300
CONTENTFORMAT
  1
CONTENTFORMAT_BEGIN
 90
        0
 91
        0
 92
      512
 93
        0
300

 40
0.0
140
1.0
 94
        2
 62
     0
340
11
144
0.18
309
CONTENTFORMAT_END
171
     0
 94
        0
309
TABLEFORMAT_END
  1
CELLSTYLE_BEGIN
 90
        3
 91
        2
300
_DATA
309
CELLSTYLE_END
  0
XRECORD
  5
16B
102
{ACAD_REACTORS
330
16A
102
}
330
16A
100
AcDbXrecord
280
     1
102
RTVSPost2010Prop28
280
     1
102
RTVSPost2010PropOp28
 70
     1
102
RTVSPost2010Prop29
280
     1
102
RTVSPost2010PropOp29
 70
     1
102
RTVSPost2010Prop30
280
     0
102
RTVSPost2010PropOp30
 70
     1
102
RTVSPost2010Prop31
280
     0
102
RTVSPost2010PropOp31
 70
     1
102
RTVSPost2010Prop32
280
     0
102
RTVSPost2010PropOp32
 70
     1
102
RTVSPost2010Prop33
280
     0
102
RTVSPost2010PropOp33
 70
     1
102
RTVSPost2010Prop34
280
     0
102
RTVSPost2010PropOp34
 70
     1
102
RTVSPost2010Prop35
280
     0
102
RTVSPost2010PropOp35
 70
     1
102
RTVSPost2010Prop36
280
     0
102
RTVSPost2010PropOp36
 70
     1
102
RTVSPost2010Prop37
 90
       50
102
RTVSPost2010PropOp37
 70
     1
102
RTVSPost2010Prop38
140
0.0
102
RTVSPost2010PropOp38
 70
     1
102
RTVSPost2010Prop39
140
1.0
102
RTVSPost2010PropOp39
 70
     1
102
RTVSPost2010Prop40
 90
        0
102
RTVSPost2010PropOp40
 70
     1
102
RTVSPost2010Prop41ColorIndex
 90
       18
102
RTVSPost2010Prop41ColorRGB
 90
        0
102
RTVSPost2010PropOp41
 70
     1
102
RTVSPost2010Prop42
 90
       50
102
RTVSPost2010PropOp42
 70
     1
102
RTVSPost2010Prop43
 90
        3
102
RTVSPost2010PropOp43
 70
     1
102
RTVSPost2010Prop44ColorIndex
 90
        5
102
RTVSPost2010Prop44ColorRGB
 90
      255
102
RTVSPost2010PropOp44
 70
     1
102
RTVSPost2010Prop45
280
     0
102
RTVSPost2010PropOp45
 70
     1
102
RTVSPost2010Prop46
 90
       50
102
RTVSPost2010PropOp46
 70
     1
102
RTVSPost2010Prop47
 90
       50
102
RTVSPost2010PropOp47
 70
     1
102
RTVSPost2010Prop48
 90
       50
102
RTVSPost2010PropOp48
 70
     1
102
RTVSPost2010Prop49
280
     0
102
RTVSPost2010PropOp49
 70
     1
102
RTVSPost2010Prop50
 90
       50
102
RTVSPost2010PropOp50
 70
     1
102
RTVSPost2010Prop51ColorIndex
 90
      256
102
RTVSPost2010Prop51ColorRGB
 90
-16777216
102
RTVSPost2010PropOp51
 70
     0
102
RTVSPost2010Prop52
140
1.0
102
RTVSPost2010PropOp52
 70
     0
102
RTVSPost2010Prop53
 90
        2
102
RTVSPost2010PropOp53
 70
     1
102
RTVSPost2010Prop54
  1
strokes_ogs.tif
102
RTVSPost2010PropOp54
 70
     1
102
RTVSPost2010Prop55
280
     0
102
RTVSPost2010PropOp55
 70
     1
102
RTVSPost2010Prop56
140
1.0
102
RTVSPost2010PropOp56
 70
     1
102
RTVSPost2010Prop57
140
1.0
102
RTVSPost2010PropOp57
 70
     1
  0
XRECORD
  5
169
102
{ACAD_REACTORS
330
168
102
}
330
168
100
AcDbXrecord
280
     1
102
RTVSPost2010Prop28
280
     0
102
RTVSPost2010PropOp28
 70
     1
102
RTVSPost2010Prop29
280
     1
102
RTVSPost2010PropOp29
 70
     1
102
RTVSPost2010Prop30
280
     1
102
RTVSPost2010PropOp30
 70
     1
102
RTVSPost2010Prop31
280
     0
102
RTVSPost2010PropOp31
 70
     1
102
RTVSPost2010Prop32
280
     0
102
RTVSPost2010PropOp32
 70
     1
102
RTVSPost2010Prop33
280
     0
102
RTVSPost2010PropOp33
 70
     1
102
RTVSPost2010Prop34
280
     0
102
RTVSPost2010PropOp34
 70
     1
102
RTVSPost2010Prop35
280
     0
102
RTVSPost2010PropOp35
 70
     1
102
RTVSPost2010Prop36
280
     0
102
RTVSPost2010PropOp36
 70
     1
102
RTVSPost2010Prop37
 90
       50
102
RTVSPost2010PropOp37
 70
     1
102
RTVSPost2010Prop38
140
0.0
102
RTVSPost2010PropOp38
 70
     1
102
RTVSPost2010Prop39
140
1.0
102
RTVSPost2010PropOp39
 70
     1
102
RTVSPost2010Prop40
 90
        0
102
RTVSPost2010PropOp40
 70
     1
102
RTVSPost2010Prop41ColorIndex
 90
       18
102
RTVSPost2010Prop41ColorRGB
 90
        0
102
RTVSPost2010PropOp41
 70
     1
102
RTVSPost2010Prop42
 90
       50
102
RTVSPost2010PropOp42
 70
     1
102
RTVSPost2010Prop43
 90
        3
102
RTVSPost2010PropOp43
 70
     1
102
RTVSPost2010Prop44ColorIndex
 90
        5
102
RTVSPost2010Prop44ColorRGB
 90
      255
102
RTVSPost2010PropOp44
 70
     1
102
RTVSPost2010Prop45
280
     0
102
RTVSPost2010PropOp45
 70
     1
102
RTVSPost2010Prop46
 90
       50
102
RTVSPost2010PropOp46
 70
     1
102
RTVSPost2010Prop47
 90
       50
102
RTVSPost2010PropOp47
 70
     1
102
RTVSPost2010Prop48
 90
       50
102
RTVSPost2010PropOp48
 70
     1
102
RTVSPost2010Prop49
280
     0
102
RTVSPost2010PropOp49
 70
     1
102
RTVSPost2010Prop50
 90
       50
102
RTVSPost2010PropOp50
 70
     1
102
RTVSPost2010Prop51ColorIndex
 90
      256
102
RTVSPost2010Prop51ColorRGB
 90
-16777216
102
RTVSPost2010PropOp51
 70
     0
102
RTVSPost2010Prop52
140
1.0
102
RTVSPost2010PropOp52
 70
     0
102
RTVSPost2010Prop53
 90
        2
102
RTVSPost2010PropOp53
 70
     1
102
RTVSPost2010Prop54
  1
strokes_ogs.tif
102
RTVSPost2010PropOp54
 70
     1
102
RTVSPost2010Prop55
280
     0
102
RTVSPost2010PropOp55
 70
     1
102
RTVSPost2010Prop56
140
1.0
102
RTVSPost2010PropOp56
 70
     1
102
RTVSPost2010Prop57
140
1.0
102
RTVSPost2010PropOp57
 70
     1
  0
XRECORD
  5
177
102
{ACAD_REACTORS
330
176
102
}
330
176
100
AcDbXrecord
280
     1
102
RTVSPost2010Prop28
280
     0
102
RTVSPost2010PropOp28
 70
     1
102
RTVSPost2010Prop29
280
     1
102
RTVSPost2010PropOp29
 70
     1
102
RTVSPost2010Prop30
280
     1
102
RTVSPost2010PropOp30
 70
     1
102
RTVSPost2010Prop31
280
     0
102
RTVSPost2010PropOp31
 70
     1
102
RTVSPost2010Prop32
280
     0
102
RTVSPost2010PropOp32
 70
     1
102
RTVSPost2010Prop33
280
     0
102
RTVSPost2010PropOp33
 70
     1
102
RTVSPost2010Prop34
280
     0
102
RTVSPost2010PropOp34
 70
     1
102
RTVSPost2010Prop35
280
     0
102
RTVSPost2010PropOp35
 70
     1
102
RTVSPost2010Prop36
280
     0
102
RTVSPost2010PropOp36
 70
     1
102
RTVSPost2010Prop37
 90
       50
102
RTVSPost2010PropOp37
 70
     1
102
RTVSPost2010Prop38
140
0.0
102
RTVSPost2010PropOp38
 70
     1
102
RTVSPost2010Prop39
140
1.0
102
RTVSPost2010PropOp39
 70
     1
102
RTVSPost2010Prop40
 90
        0
102
RTVSPost2010PropOp40
 70
     1
102
RTVSPost2010Prop41ColorIndex
 90
       18
102
RTVSPost2010Prop41ColorRGB
 90
        0
102
RTVSPost2010PropOp41
 70
     1
102
RTVSPost2010Prop42
 90
       50
102
RTVSPost2010PropOp42
 70
     1
102
RTVSPost2010Prop43
 90
        3
102
RTVSPost2010PropOp43
 70
     1
102
RTVSPost2010Prop44ColorIndex
 90
        5
102
RTVSPost2010Prop44ColorRGB
 90
      255
102
RTVSPost2010PropOp44
 70
     1
102
RTVSPost2010Prop45
280
     0
102
RTVSPost2010PropOp45
 70
     1
102
RTVSPost2010Prop46
 90
       50
102
RTVSPost2010PropOp46
 70
     1
102
RTVSPost2010Prop47
 90
       50
102
RTVSPost2010PropOp47
 70
     1
102
RTVSPost2010Prop48
 90
       50
102
RTVSPost2010PropOp48
 70
     1
102
RTVSPost2010Prop49
280
     0
102
RTVSPost2010PropOp49
 70
     1
102
RTVSPost2010Prop50
 90
       50
102
RTVSPost2010PropOp50
 70
     1
102
RTVSPost2010Prop51ColorIndex
 90
      256
102
RTVSPost2010Prop51ColorRGB
 90
-16777216
102
RTVSPost2010PropOp51
 70
     0
102
RTVSPost2010Prop52
140
1.0
102
RTVSPost2010PropOp52
 70
     0
102
RTVSPost2010Prop53
 90
        2
102
RTVSPost2010PropOp53
 70
     1
102
RTVSPost2010Prop54
  1
strokes_ogs.tif
102
RTVSPost2010PropOp54
 70
     1
102
RTVSPost2010Prop55
280
     0
102
RTVSPost2010PropOp55
 70
     1
102
RTVSPost2010Prop56
140
1.0
102
RTVSPost2010PropOp56
 70
     1
102
RTVSPost2010Prop57
140
1.0
102
RTVSPost2010PropOp57
 70
     1
  0
XRECORD
  5
17F
102
{ACAD_REACTORS
330
17E
102
}
330
17E
100
AcDbXrecord
280
     1
102
RTVSPost2010Prop28
280
     0
102
RTVSPost2010PropOp28
 70
     1
102
RTVSPost2010Prop29
280
     1
102
RTVSPost2010PropOp29
 70
     1
102
RTVSPost2010Prop30
280
     1
102
RTVSPost2010PropOp30
 70
     1
102
RTVSPost2010Prop31
280
     0
102
RTVSPost2010PropOp31
 70
     1
102
RTVSPost2010Prop32
280
     0
102
RTVSPost2010PropOp32
 70
     1
102
RTVSPost2010Prop33
280
     0
102
RTVSPost2010PropOp33
 70
     1
102
RTVSPost2010Prop34
280
     0
102
RTVSPost2010PropOp34
 70
     1
102
RTVSPost2010Prop35
280
     0
102
RTVSPost2010PropOp35
 70
     1
102
RTVSPost2010Prop36
280
     0
102
RTVSPost2010PropOp36
 70
     1
102
RTVSPost2010Prop37
 90
       50
102
RTVSPost2010PropOp37
 70
     1
102
RTVSPost2010Prop38
140
0.0
102
RTVSPost2010PropOp38
 70
     1
102
RTVSPost2010Prop39
140
1.0
102
RTVSPost2010PropOp39
 70
     1
102
RTVSPost2010Prop40
 90
        0
102
RTVSPost2010PropOp40
 70
     1
102
RTVSPost2010Prop41ColorIndex
 90
       18
102
RTVSPost2010Prop41ColorRGB
 90
        0
102
RTVSPost2010PropOp41
 70
     1
102
RTVSPost2010Prop42
 90
       50
102
RTVSPost2010PropOp42
 70
     1
102
RTVSPost2010Prop43
 90
        3
102
RTVSPost2010PropOp43
 70
     1
102
RTVSPost2010Prop44ColorIndex
 90
        5
102
RTVSPost2010Prop44ColorRGB
 90
      255
102
RTVSPost2010PropOp44
 70
     1
102
RTVSPost2010Prop45
280
     0
102
RTVSPost2010PropOp45
 70
     1
102
RTVSPost2010Prop46
 90
       50
102
RTVSPost2010PropOp46
 70
     1
102
RTVSPost2010Prop47
 90
       50
102
RTVSPost2010PropOp47
 70
     1
102
RTVSPost2010Prop48
 90
       50
102
RTVSPost2010PropOp48
 70
     1
102
RTVSPost2010Prop49
280
     0
102
RTVSPost2010PropOp49
 70
     1
102
RTVSPost2010Prop50
 90
       50
102
RTVSPost2010PropOp50
 70
     1
102
RTVSPost2010Prop51ColorIndex
 90
      256
102
RTVSPost2010Prop51ColorRGB
 90
-16777216
102
RTVSPost2010PropOp51
 70
     0
102
RTVSPost2010Prop52
140
1.0
102
RTVSPost2010PropOp52
 70
     0
102
RTVSPost2010Prop53
 90
        2
102
RTVSPost2010PropOp53
 70
     1
102
RTVSPost2010Prop54
  1
strokes_ogs.tif
102
RTVSPost2010PropOp54
 70
     1
102
RTVSPost2010Prop55
280
     0
102
RTVSPost2010PropOp55
 70
     1
102
RTVSPost2010Prop56
140
1.0
102
RTVSPost2010PropOp56
 70
     1
102
RTVSPost2010Prop57
140
1.0
102
RTVSPost2010PropOp57
 70
     1
  0
XRECORD
  5
171
102
{ACAD_REACTORS
330
170
102
}
330
170
100
AcDbXrecord
280
     1
102
RTVSPost2010Prop28
280
     0
102
RTVSPost2010PropOp28
 70
     1
102
RTVSPost2010Prop29
280
     1
102
RTVSPost2010PropOp29
 70
     1
102
RTVSPost2010Prop30
280
     1
102
RTVSPost2010PropOp30
 70
     1
102
RTVSPost2010Prop31
280
     0
102
RTVSPost2010PropOp31
 70
     1
102
RTVSPost2010Prop32
280
     0
102
RTVSPost2010PropOp32
 70
     1
102
RTVSPost2010Prop33
280
     0
102
RTVSPost2010PropOp33
 70
     1
102
RTVSPost2010Prop34
280
     0
102
RTVSPost2010PropOp34
 70
     1
102
RTVSPost2010Prop35
280
     0
102
RTVSPost2010PropOp35
 70
     1
102
RTVSPost2010Prop36
280
     0
102
RTVSPost2010PropOp36
 70
     1
102
RTVSPost2010Prop37
 90
       50
102
RTVSPost2010PropOp37
 70
     1
102
RTVSPost2010Prop38
140
0.0
102
RTVSPost2010PropOp38
 70
     1
102
RTVSPost2010Prop39
140
1.0
102
RTVSPost2010PropOp39
 70
     1
102
RTVSPost2010Prop40
 90
        0
102
RTVSPost2010PropOp40
 70
     1
102
RTVSPost2010Prop41ColorIndex
 90
       18
102
RTVSPost2010Prop41ColorRGB
 90
        0
102
RTVSPost2010PropOp41
 70
     1
102
RTVSPost2010Prop42
 90
       50
102
RTVSPost2010PropOp42
 70
     1
102
RTVSPost2010Prop43
 90
        3
102
RTVSPost2010PropOp43
 70
     1
102
RTVSPost2010Prop44ColorIndex
 90
        5
102
RTVSPost2010Prop44ColorRGB
 90
      255
102
RTVSPost2010PropOp44
 70
     1
102
RTVSPost2010Prop45
280
     0
102
RTVSPost2010PropOp45
 70
     1
102
RTVSPost2010Prop46
 90
       50
102
RTVSPost2010PropOp46
 70
     1
102
RTVSPost2010Prop47
 90
       50
102
RTVSPost2010PropOp47
 70
     1
102
RTVSPost2010Prop48
 90
       50
102
RTVSPost2010PropOp48
 70
     1
102
RTVSPost2010Prop49
280
     0
102
RTVSPost2010PropOp49
 70
     1
102
RTVSPost2010Prop50
 90
       50
102
RTVSPost2010PropOp50
 70
     1
102
RTVSPost2010Prop51ColorIndex
 90
      256
102
RTVSPost2010Prop51ColorRGB
 90
-16777216
102
RTVSPost2010PropOp51
 70
     0
102
RTVSPost2010Prop52
140
1.0
102
RTVSPost2010PropOp52
 70
     0
102
RTVSPost2010Prop53
 90
        2
102
RTVSPost2010PropOp53
 70
     1
102
RTVSPost2010Prop54
  1
strokes_ogs.tif
102
RTVSPost2010PropOp54
 70
     1
102
RTVSPost2010Prop55
280
     0
102
RTVSPost2010PropOp55
 70
     1
102
RTVSPost2010Prop56
140
1.0
102
RTVSPost2010PropOp56
 70
     1
102
RTVSPost2010Prop57
140
1.0
102
RTVSPost2010PropOp57
 70
     1
  0
XRECORD
  5
175
102
{ACAD_REACTORS
330
174
102
}
330
174
100
AcDbXrecord
280
     1
102
RTVSPost2010Prop28
280
     0
102
RTVSPost2010PropOp28
 70
     1
102
RTVSPost2010Prop29
280
     1
102
RTVSPost2010PropOp29
 70
     1
102
RTVSPost2010Prop30
280
     1
102
RTVSPost2010PropOp30
 70
     1
102
RTVSPost2010Prop31
280
     0
102
RTVSPost2010PropOp31
 70
     1
102
RTVSPost2010Prop32
280
     0
102
RTVSPost2010PropOp32
 70
     1
102
RTVSPost2010Prop33
280
     0
102
RTVSPost2010PropOp33
 70
     1
102
RTVSPost2010Prop34
280
     0
102
RTVSPost2010PropOp34
 70
     1
102
RTVSPost2010Prop35
280
     0
102
RTVSPost2010PropOp35
 70
     1
102
RTVSPost2010Prop36
280
     0
102
RTVSPost2010PropOp36
 70
     1
102
RTVSPost2010Prop37
 90
       50
102
RTVSPost2010PropOp37
 70
     1
102
RTVSPost2010Prop38
140
0.0
102
RTVSPost2010PropOp38
 70
     1
102
RTVSPost2010Prop39
140
1.0
102
RTVSPost2010PropOp39
 70
     1
102
RTVSPost2010Prop40
 90
        0
102
RTVSPost2010PropOp40
 70
     1
102
RTVSPost2010Prop41ColorIndex
 90
       18
102
RTVSPost2010Prop41ColorRGB
 90
        0
102
RTVSPost2010PropOp41
 70
     1
102
RTVSPost2010Prop42
 90
       50
102
RTVSPost2010PropOp42
 70
     1
102
RTVSPost2010Prop43
 90
        3
102
RTVSPost2010PropOp43
 70
     1
102
RTVSPost2010Prop44ColorIndex
 90
        5
102
RTVSPost2010Prop44ColorRGB
 90
      255
102
RTVSPost2010PropOp44
 70
     1
102
RTVSPost2010Prop45
280
     0
102
RTVSPost2010PropOp45
 70
     1
102
RTVSPost2010Prop46
 90
       50
102
RTVSPost2010PropOp46
 70
     1
102
RTVSPost2010Prop47
 90
       50
102
RTVSPost2010PropOp47
 70
     1
102
RTVSPost2010Prop48
 90
       50
102
RTVSPost2010PropOp48
 70
     1
102
RTVSPost2010Prop49
280
     0
102
RTVSPost2010PropOp49
 70
     1
102
RTVSPost2010Prop50
 90
       50
102
RTVSPost2010PropOp50
 70
     1
102
RTVSPost2010Prop51ColorIndex
 90
      256
102
RTVSPost2010Prop51ColorRGB
 90
-16777216
102
RTVSPost2010PropOp51
 70
     0
102
RTVSPost2010Prop52
140
1.0
102
RTVSPost2010PropOp52
 70
     0
102
RTVSPost2010Prop53
 90
        2
102
RTVSPost2010PropOp53
 70
     1
102
RTVSPost2010Prop54
  1
strokes_ogs.tif
102
RTVSPost2010PropOp54
 70
     1
102
RTVSPost2010Prop55
280
     0
102
RTVSPost2010PropOp55
 70
     1
102
RTVSPost2010Prop56
140
1.0
102
RTVSPost2010PropOp56
 70
     1
102
RTVSPost2010Prop57
140
1.0
102
RTVSPost2010PropOp57
 70
     1
  0
XRECORD
  5
18F
102
{ACAD_REACTORS
330
18E
102
}
330
18E
100
AcDbXrecord
280
     1
102
RTVSPost2010Prop28
280
     0
102
RTVSPost2010PropOp28
 70
     0
102
RTVSPost2010Prop29
280
     1
102
RTVSPost2010PropOp29
 70
     0
102
RTVSPost2010Prop30
280
     1
102
RTVSPost2010PropOp30
 70
     0
102
RTVSPost2010Prop31
280
     0
102
RTVSPost2010PropOp31
 70
     0
102
RTVSPost2010Prop32
280
     0
102
RTVSPost2010PropOp32
 70
     0
102
RTVSPost2010Prop33
280
     0
102
RTVSPost2010PropOp33
 70
     0
102
RTVSPost2010Prop34
280
     0
102
RTVSPost2010PropOp34
 70
     0
102
RTVSPost2010Prop35
280
     0
102
RTVSPost2010PropOp35
 70
     0
102
RTVSPost2010Prop36
280
     0
102
RTVSPost2010PropOp36
 70
     0
102
RTVSPost2010Prop37
 90
       50
102
RTVSPost2010PropOp37
 70
     0
102
RTVSPost2010Prop38
140
0.0
102
RTVSPost2010PropOp38
 70
     0
102
RTVSPost2010Prop39
140
1.0
102
RTVSPost2010PropOp39
 70
     0
102
RTVSPost2010Prop40
 90
        0
102
RTVSPost2010PropOp40
 70
     0
102
RTVSPost2010Prop41ColorIndex
 90
       18
102
RTVSPost2010Prop41ColorRGB
 90
        0
102
RTVSPost2010PropOp41
 70
     0
102
RTVSPost2010Prop42
 90
       50
102
RTVSPost2010PropOp42
 70
     0
102
RTVSPost2010Prop43
 90
        3
102
RTVSPost2010PropOp43
 70
     0
102
RTVSPost2010Prop44ColorIndex
 90
        5
102
RTVSPost2010Prop44ColorRGB
 90
      255
102
RTVSPost2010PropOp44
 70
     0
102
RTVSPost2010Prop45
280
     0
102
RTVSPost2010PropOp45
 70
     0
102
RTVSPost2010Prop46
 90
       50
102
RTVSPost2010PropOp46
 70
     0
102
RTVSPost2010Prop47
 90
       50
102
RTVSPost2010PropOp47
 70
     0
102
RTVSPost2010Prop48
 90
       50
102
RTVSPost2010PropOp48
 70
     0
102
RTVSPost2010Prop49
280
     0
102
RTVSPost2010PropOp49
 70
     0
102
RTVSPost2010Prop50
 90
       50
102
RTVSPost2010PropOp50
 70
     0
102
RTVSPost2010Prop51ColorIndex
 90
      256
102
RTVSPost2010Prop51ColorRGB
 90
-16777216
102
RTVSPost2010PropOp51
 70
     0
102
RTVSPost2010Prop52
140
1.0
102
RTVSPost2010PropOp52
 70
     0
102
RTVSPost2010Prop53
 90
        2
102
RTVSPost2010PropOp53
 70
     0
102
RTVSPost2010Prop54
  1
strokes_ogs.tif
102
RTVSPost2010PropOp54
 70
     0
102
RTVSPost2010Prop55
280
     0
102
RTVSPost2010PropOp55
 70
     0
102
RTVSPost2010Prop56
140
1.0
102
RTVSPost2010PropOp56
 70
     0
102
RTVSPost2010Prop57
140
1.0
102
RTVSPost2010PropOp57
 70
     0
  0
XRECORD
  5
17D
102
{ACAD_REACTORS
330
17C
102
}
330
17C
100
AcDbXrecord
280
     1
102
RTVSPost2010Prop28
280
     0
102
RTVSPost2010PropOp28
 70
     1
102
RTVSPost2010Prop29
280
     1
102
RTVSPost2010PropOp29
 70
     1
102
RTVSPost2010Prop30
280
     1
102
RTVSPost2010PropOp30
 70
     1
102
RTVSPost2010Prop31
280
     0
102
RTVSPost2010PropOp31
 70
     1
102
RTVSPost2010Prop32
280
     0
102
RTVSPost2010PropOp32
 70
     1
102
RTVSPost2010Prop33
280
     0
102
RTVSPost2010PropOp33
 70
     1
102
RTVSPost2010Prop34
280
     0
102
RTVSPost2010PropOp34
 70
     1
102
RTVSPost2010Prop35
280
     0
102
RTVSPost2010PropOp35
 70
     1
102
RTVSPost2010Prop36
280
     0
102
RTVSPost2010PropOp36
 70
     1
102
RTVSPost2010Prop37
 90
       50
102
RTVSPost2010PropOp37
 70
     1
102
RTVSPost2010Prop38
140
0.0
102
RTVSPost2010PropOp38
 70
     1
102
RTVSPost2010Prop39
140
1.0
102
RTVSPost2010PropOp39
 70
     1
102
RTVSPost2010Prop40
 90
        0
102
RTVSPost2010PropOp40
 70
     1
102
RTVSPost2010Prop41ColorIndex
 90
       18
102
RTVSPost2010Prop41ColorRGB
 90
        0
102
RTVSPost2010PropOp41
 70
     1
102
RTVSPost2010Prop42
 90
       50
102
RTVSPost2010PropOp42
 70
     1
102
RTVSPost2010Prop43
 90
        3
102
RTVSPost2010PropOp43
 70
     1
102
RTVSPost2010Prop44ColorIndex
 90
        5
102
RTVSPost2010Prop44ColorRGB
 90
      255
102
RTVSPost2010PropOp44
 70
     1
102
RTVSPost2010Prop45
280
     0
102
RTVSPost2010PropOp45
 70
     1
102
RTVSPost2010Prop46
 90
       50
102
RTVSPost2010PropOp46
 70
     1
102
RTVSPost2010Prop47
 90
       50
102
RTVSPost2010PropOp47
 70
     1
102
RTVSPost2010Prop48
 90
       50
102
RTVSPost2010PropOp48
 70
     1
102
RTVSPost2010Prop49
280
     0
102
RTVSPost2010PropOp49
 70
     1
102
RTVSPost2010Prop50
 90
       50
102
RTVSPost2010PropOp50
 70
     1
102
RTVSPost2010Prop51ColorIndex
 90
      256
102
RTVSPost2010Prop51ColorRGB
 90
-16777216
102
RTVSPost2010PropOp51
 70
     0
102
RTVSPost2010Prop52
140
1.0
102
RTVSPost2010PropOp52
 70
     0
102
RTVSPost2010Prop53
 90
        2
102
RTVSPost2010PropOp53
 70
     1
102
RTVSPost2010Prop54
  1
strokes_ogs.tif
102
RTVSPost2010PropOp54
 70
     1
102
RTVSPost2010Prop55
280
     0
102
RTVSPost2010PropOp55
 70
     1
102
RTVSPost2010Prop56
140
1.0
102
RTVSPost2010PropOp56
 70
     1
102
RTVSPost2010Prop57
140
1.0
102
RTVSPost2010PropOp57
 70
     1
  0
XRECORD
  5
161
102
{ACAD_REACTORS
330
160
102
}
330
160
100
AcDbXrecord
280
     1
102
RTVSPost2010Prop28
280
     0
102
RTVSPost2010PropOp28
 70
     1
102
RTVSPost2010Prop29
280
     1
102
RTVSPost2010PropOp29
 70
     1
102
RTVSPost2010Prop30
280
     1
102
RTVSPost2010PropOp30
 70
     1
102
RTVSPost2010Prop31
280
     0
102
RTVSPost2010PropOp31
 70
     1
102
RTVSPost2010Prop32
280
     0
102
RTVSPost2010PropOp32
 70
     1
102
RTVSPost2010Prop33
280
     0
102
RTVSPost2010PropOp33
 70
     1
102
RTVSPost2010Prop34
280
     0
102
RTVSPost2010PropOp34
 70
     1
102
RTVSPost2010Prop35
280
     0
102
RTVSPost2010PropOp35
 70
     1
102
RTVSPost2010Prop36
280
     0
102
RTVSPost2010PropOp36
 70
     1
102
RTVSPost2010Prop37
 90
       50
102
RTVSPost2010PropOp37
 70
     1
102
RTVSPost2010Prop38
140
0.0
102
RTVSPost2010PropOp38
 70
     1
102
RTVSPost2010Prop39
140
1.0
102
RTVSPost2010PropOp39
 70
     1
102
RTVSPost2010Prop40
 90
        0
102
RTVSPost2010PropOp40
 70
     1
102
RTVSPost2010Prop41ColorIndex
 90
       18
102
RTVSPost2010Prop41ColorRGB
 90
        0
102
RTVSPost2010PropOp41
 70
     1
102
RTVSPost2010Prop42
 90
       50
102
RTVSPost2010PropOp42
 70
     1
102
RTVSPost2010Prop43
 90
        3
102
RTVSPost2010PropOp43
 70
     1
102
RTVSPost2010Prop44ColorIndex
 90
        5
102
RTVSPost2010Prop44ColorRGB
 90
      255
102
RTVSPost2010PropOp44
 70
     1
102
RTVSPost2010Prop45
280
     0
102
RTVSPost2010PropOp45
 70
     1
102
RTVSPost2010Prop46
 90
       50
102
RTVSPost2010PropOp46
 70
     1
102
RTVSPost2010Prop47
 90
       50
102
RTVSPost2010PropOp47
 70
     1
102
RTVSPost2010Prop48
 90
       50
102
RTVSPost2010PropOp48
 70
     1
102
RTVSPost2010Prop49
280
     0
102
RTVSPost2010PropOp49
 70
     1
102
RTVSPost2010Prop50
 90
       50
102
RTVSPost2010PropOp50
 70
     1
102
RTVSPost2010Prop51ColorIndex
 90
      256
102
RTVSPost2010Prop51ColorRGB
 90
-16777216
102
RTVSPost2010PropOp51
 70
     0
102
RTVSPost2010Prop52
140
1.0
102
RTVSPost2010PropOp52
 70
     0
102
RTVSPost2010Prop53
 90
        2
102
RTVSPost2010PropOp53
 70
     1
102
RTVSPost2010Prop54
  1
strokes_ogs.tif
102
RTVSPost2010PropOp54
 70
     1
102
RTVSPost2010Prop55
280
     0
102
RTVSPost2010PropOp55
 70
     1
102
RTVSPost2010Prop56
140
1.0
102
RTVSPost2010PropOp56
 70
     1
102
RTVSPost2010Prop57
140
1.0
102
RTVSPost2010PropOp57
 70
     1
  0
XRECORD
  5
163
102
{ACAD_REACTORS
330
162
102
}
330
162
100
AcDbXrecord
280
     1
102
RTVSPost2010Prop28
280
     0
102
RTVSPost2010PropOp28
 70
     1
102
RTVSPost2010Prop29
280
     1
102
RTVSPost2010PropOp29
 70
     1
102
RTVSPost2010Prop30
280
     1
102
RTVSPost2010PropOp30
 70
     1
102
RTVSPost2010Prop31
280
     0
102
RTVSPost2010PropOp31
 70
     1
102
RTVSPost2010Prop32
280
     0
102
RTVSPost2010PropOp32
 70
     1
102
RTVSPost2010Prop33
280
     0
102
RTVSPost2010PropOp33
 70
     1
102
RTVSPost2010Prop34
280
     0
102
RTVSPost2010PropOp34
 70
     1
102
RTVSPost2010Prop35
280
     0
102
RTVSPost2010PropOp35
 70
     1
102
RTVSPost2010Prop36
280
     0
102
RTVSPost2010PropOp36
 70
     1
102
RTVSPost2010Prop37
 90
       50
102
RTVSPost2010PropOp37
 70
     1
102
RTVSPost2010Prop38
140
0.0
102
RTVSPost2010PropOp38
 70
     1
102
RTVSPost2010Prop39
140
1.0
102
RTVSPost2010PropOp39
 70
     1
102
RTVSPost2010Prop40
 90
        0
102
RTVSPost2010PropOp40
 70
     1
102
RTVSPost2010Prop41ColorIndex
 90
       18
102
RTVSPost2010Prop41ColorRGB
 90
        0
102
RTVSPost2010PropOp41
 70
     1
102
RTVSPost2010Prop42
 90
       50
102
RTVSPost2010PropOp42
 70
     1
102
RTVSPost2010Prop43
 90
        3
102
RTVSPost2010PropOp43
 70
     1
102
RTVSPost2010Prop44ColorIndex
 90
        5
102
RTVSPost2010Prop44ColorRGB
 90
      255
102
RTVSPost2010PropOp44
 70
     1
102
RTVSPost2010Prop45
280
     0
102
RTVSPost2010PropOp45
 70
     1
102
RTVSPost2010Prop46
 90
       50
102
RTVSPost2010PropOp46
 70
     1
102
RTVSPost2010Prop47
 90
       50
102
RTVSPost2010PropOp47
 70
     1
102
RTVSPost2010Prop48
 90
       50
102
RTVSPost2010PropOp48
 70
     1
102
RTVSPost2010Prop49
280
     0
102
RTVSPost2010PropOp49
 70
     1
102
RTVSPost2010Prop50
 90
       50
102
RTVSPost2010PropOp50
 70
     1
102
RTVSPost2010Prop51ColorIndex
 90
      256
102
RTVSPost2010Prop51ColorRGB
 90
-16777216
102
RTVSPost2010PropOp51
 70
     0
102
RTVSPost2010Prop52
140
1.0
102
RTVSPost2010PropOp52
 70
     0
102
RTVSPost2010Prop53
 90
        2
102
RTVSPost2010PropOp53
 70
     1
102
RTVSPost2010Prop54
  1
strokes_ogs.tif
102
RTVSPost2010PropOp54
 70
     1
102
RTVSPost2010Prop55
280
     0
102
RTVSPost2010PropOp55
 70
     1
102
RTVSPost2010Prop56
140
1.0
102
RTVSPost2010PropOp56
 70
     1
102
RTVSPost2010Prop57
140
1.0
102
RTVSPost2010PropOp57
 70
     1
  0
XRECORD
  5
165
102
{ACAD_REACTORS
330
164
102
}
330
164
100
AcDbXrecord
280
     1
102
RTVSPost2010Prop28
280
     0
102
RTVSPost2010PropOp28
 70
     1
102
RTVSPost2010Prop29
280
     1
102
RTVSPost2010PropOp29
 70
     1
102
RTVSPost2010Prop30
280
     1
102
RTVSPost2010PropOp30
 70
     1
102
RTVSPost2010Prop31
280
     0
102
RTVSPost2010PropOp31
 70
     1
102
RTVSPost2010Prop32
280
     0
102
RTVSPost2010PropOp32
 70
     1
102
RTVSPost2010Prop33
280
     0
102
RTVSPost2010PropOp33
 70
     1
102
RTVSPost2010Prop34
280
     0
102
RTVSPost2010PropOp34
 70
     1
102
RTVSPost2010Prop35
280
     0
102
RTVSPost2010PropOp35
 70
     1
102
RTVSPost2010Prop36
280
     0
102
RTVSPost2010PropOp36
 70
     1
102
RTVSPost2010Prop37
 90
       50
102
RTVSPost2010PropOp37
 70
     1
102
RTVSPost2010Prop38
140
0.0
102
RTVSPost2010PropOp38
 70
     1
102
RTVSPost2010Prop39
140
1.0
102
RTVSPost2010PropOp39
 70
     1
102
RTVSPost2010Prop40
 90
        0
102
RTVSPost2010PropOp40
 70
     1
102
RTVSPost2010Prop41ColorIndex
 90
       18
102
RTVSPost2010Prop41ColorRGB
 90
        0
102
RTVSPost2010PropOp41
 70
     1
102
RTVSPost2010Prop42
 90
       50
102
RTVSPost2010PropOp42
 70
     1
102
RTVSPost2010Prop43
 90
        3
102
RTVSPost2010PropOp43
 70
     1
102
RTVSPost2010Prop44ColorIndex
 90
        5
102
RTVSPost2010Prop44ColorRGB
 90
      255
102
RTVSPost2010PropOp44
 70
     1
102
RTVSPost2010Prop45
280
     0
102
RTVSPost2010PropOp45
 70
     1
102
RTVSPost2010Prop46
 90
       50
102
RTVSPost2010PropOp46
 70
     1
102
RTVSPost2010Prop47
 90
       50
102
RTVSPost2010PropOp47
 70
     1
102
RTVSPost2010Prop48
 90
       50
102
RTVSPost2010PropOp48
 70
     1
102
RTVSPost2010Prop49
280
     0
102
RTVSPost2010PropOp49
 70
     1
102
RTVSPost2010Prop50
 90
       50
102
RTVSPost2010PropOp50
 70
     1
102
RTVSPost2010Prop51ColorIndex
 90
      256
102
RTVSPost2010Prop51ColorRGB
 90
-16777216
102
RTVSPost2010PropOp51
 70
     0
102
RTVSPost2010Prop52
140
1.0
102
RTVSPost2010PropOp52
 70
     0
102
RTVSPost2010Prop53
 90
        2
102
RTVSPost2010PropOp53
 70
     1
102
RTVSPost2010Prop54
  1
strokes_ogs.tif
102
RTVSPost2010PropOp54
 70
     1
102
RTVSPost2010Prop55
280
     0
102
RTVSPost2010PropOp55
 70
     1
102
RTVSPost2010Prop56
140
1.0
102
RTVSPost2010PropOp56
 70
     1
102
RTVSPost2010Prop57
140
1.0
102
RTVSPost2010PropOp57
 70
     1
  0
XRECORD
  5
167
102
{ACAD_REACTORS
330
166
102
}
330
166
100
AcDbXrecord
280
     1
102
RTVSPost2010Prop28
280
     0
102
RTVSPost2010PropOp28
 70
     1
102
RTVSPost2010Prop29
280
     1
102
RTVSPost2010PropOp29
 70
     1
102
RTVSPost2010Prop30
280
     1
102
RTVSPost2010PropOp30
 70
     1
102
RTVSPost2010Prop31
280
     0
102
RTVSPost2010PropOp31
 70
     1
102
RTVSPost2010Prop32
280
     0
102
RTVSPost2010PropOp32
 70
     1
102
RTVSPost2010Prop33
280
     0
102
RTVSPost2010PropOp33
 70
     1
102
RTVSPost2010Prop34
280
     0
102
RTVSPost2010PropOp34
 70
     1
102
RTVSPost2010Prop35
280
     0
102
RTVSPost2010PropOp35
 70
     1
102
RTVSPost2010Prop36
280
     0
102
RTVSPost2010PropOp36
 70
     1
102
RTVSPost2010Prop37
 90
       50
102
RTVSPost2010PropOp37
 70
     1
102
RTVSPost2010Prop38
140
0.0
102
RTVSPost2010PropOp38
 70
     1
102
RTVSPost2010Prop39
140
1.0
102
RTVSPost2010PropOp39
 70
     1
102
RTVSPost2010Prop40
 90
        0
102
RTVSPost2010PropOp40
 70
     1
102
RTVSPost2010Prop41ColorIndex
 90
       18
102
RTVSPost2010Prop41ColorRGB
 90
        0
102
RTVSPost2010PropOp41
 70
     1
102
RTVSPost2010Prop42
 90
       50
102
RTVSPost2010PropOp42
 70
     1
102
RTVSPost2010Prop43
 90
        3
102
RTVSPost2010PropOp43
 70
     1
102
RTVSPost2010Prop44ColorIndex
 90
        5
102
RTVSPost2010Prop44ColorRGB
 90
      255
102
RTVSPost2010PropOp44
 70
     1
102
RTVSPost2010Prop45
280
     0
102
RTVSPost2010PropOp45
 70
     1
102
RTVSPost2010Prop46
 90
       50
102
RTVSPost2010PropOp46
 70
     1
102
RTVSPost2010Prop47
 90
       50
102
RTVSPost2010PropOp47
 70
     1
102
RTVSPost2010Prop48
 90
       50
102
RTVSPost2010PropOp48
 70
     1
102
RTVSPost2010Prop49
280
     0
102
RTVSPost2010PropOp49
 70
     1
102
RTVSPost2010Prop50
 90
       50
102
RTVSPost2010PropOp50
 70
     1
102
RTVSPost2010Prop51ColorIndex
 90
      256
102
RTVSPost2010Prop51ColorRGB
 90
-16777216
102
RTVSPost2010PropOp51
 70
     0
102
RTVSPost2010Prop52
140
1.0
102
RTVSPost2010PropOp52
 70
     0
102
RTVSPost2010Prop53
 90
        2
102
RTVSPost2010PropOp53
 70
     1
102
RTVSPost2010Prop54
  1
strokes_ogs.tif
102
RTVSPost2010PropOp54
 70
     1
102
RTVSPost2010Prop55
280
     0
102
RTVSPost2010PropOp55
 70
     1
102
RTVSPost2010Prop56
140
1.0
102
RTVSPost2010PropOp56
 70
     1
102
RTVSPost2010Prop57
140
1.0
102
RTVSPost2010PropOp57
 70
     1
  0
XRECORD
  5
16F
102
{ACAD_REACTORS
330
16E
102
}
330
16E
100
AcDbXrecord
280
     1
102
RTVSPost2010Prop28
280
     0
102
RTVSPost2010PropOp28
 70
     1
102
RTVSPost2010Prop29
280
     1
102
RTVSPost2010PropOp29
 70
     1
102
RTVSPost2010Prop30
280
     1
102
RTVSPost2010PropOp30
 70
     1
102
RTVSPost2010Prop31
280
     0
102
RTVSPost2010PropOp31
 70
     1
102
RTVSPost2010Prop32
280
     0
102
RTVSPost2010PropOp32
 70
     1
102
RTVSPost2010Prop33
280
     0
102
RTVSPost2010PropOp33
 70
     1
102
RTVSPost2010Prop34
280
     0
102
RTVSPost2010PropOp34
 70
     1
102
RTVSPost2010Prop35
280
     0
102
RTVSPost2010PropOp35
 70
     1
102
RTVSPost2010Prop36
280
     0
102
RTVSPost2010PropOp36
 70
     1
102
RTVSPost2010Prop37
 90
       50
102
RTVSPost2010PropOp37
 70
     1
102
RTVSPost2010Prop38
140
0.0
102
RTVSPost2010PropOp38
 70
     1
102
RTVSPost2010Prop39
140
1.0
102
RTVSPost2010PropOp39
 70
     1
102
RTVSPost2010Prop40
 90
        0
102
RTVSPost2010PropOp40
 70
     1
102
RTVSPost2010Prop41ColorIndex
 90
       18
102
RTVSPost2010Prop41ColorRGB
 90
        0
102
RTVSPost2010PropOp41
 70
     1
102
RTVSPost2010Prop42
 90
       50
102
RTVSPost2010PropOp42
 70
     1
102
RTVSPost2010Prop43
 90
        3
102
RTVSPost2010PropOp43
 70
     1
102
RTVSPost2010Prop44ColorIndex
 90
        5
102
RTVSPost2010Prop44ColorRGB
 90
      255
102
RTVSPost2010PropOp44
 70
     1
102
RTVSPost2010Prop45
280
     0
102
RTVSPost2010PropOp45
 70
     1
102
RTVSPost2010Prop46
 90
       50
102
RTVSPost2010PropOp46
 70
     1
102
RTVSPost2010Prop47
 90
       50
102
RTVSPost2010PropOp47
 70
     1
102
RTVSPost2010Prop48
 90
       50
102
RTVSPost2010PropOp48
 70
     1
102
RTVSPost2010Prop49
280
     0
102
RTVSPost2010PropOp49
 70
     1
102
RTVSPost2010Prop50
 90
       50
102
RTVSPost2010PropOp50
 70
     1
102
RTVSPost2010Prop51ColorIndex
 90
      256
102
RTVSPost2010Prop51ColorRGB
 90
-16777216
102
RTVSPost2010PropOp51
 70
     0
102
RTVSPost2010Prop52
140
1.0
102
RTVSPost2010PropOp52
 70
     0
102
RTVSPost2010Prop53
 90
        2
102
RTVSPost2010PropOp53
 70
     1
102
RTVSPost2010Prop54
  1
strokes_ogs.tif
102
RTVSPost2010PropOp54
 70
     1
102
RTVSPost2010Prop55
280
     0
102
RTVSPost2010PropOp55
 70
     1
102
RTVSPost2010Prop56
140
1.0
102
RTVSPost2010PropOp56
 70
     1
102
RTVSPost2010Prop57
140
1.0
102
RTVSPost2010PropOp57
 70
     1
  0
XRECORD
  5
18B
102
{ACAD_REACTORS
330
18A
102
}
330
18A
100
AcDbXrecord
280
     1
102
RTVSPost2010Prop28
280
     0
102
RTVSPost2010PropOp28
 70
     0
102
RTVSPost2010Prop29
280
     1
102
RTVSPost2010PropOp29
 70
     0
102
RTVSPost2010Prop30
280
     1
102
RTVSPost2010PropOp30
 70
     0
102
RTVSPost2010Prop31
280
     0
102
RTVSPost2010PropOp31
 70
     0
102
RTVSPost2010Prop32
280
     0
102
RTVSPost2010PropOp32
 70
     0
102
RTVSPost2010Prop33
280
     0
102
RTVSPost2010PropOp33
 70
     0
102
RTVSPost2010Prop34
280
     0
102
RTVSPost2010PropOp34
 70
     0
102
RTVSPost2010Prop35
280
     0
102
RTVSPost2010PropOp35
 70
     0
102
RTVSPost2010Prop36
280
     0
102
RTVSPost2010PropOp36
 70
     0
102
RTVSPost2010Prop37
 90
       50
102
RTVSPost2010PropOp37
 70
     0
102
RTVSPost2010Prop38
140
0.0
102
RTVSPost2010PropOp38
 70
     0
102
RTVSPost2010Prop39
140
1.0
102
RTVSPost2010PropOp39
 70
     0
102
RTVSPost2010Prop40
 90
        0
102
RTVSPost2010PropOp40
 70
     0
102
RTVSPost2010Prop41ColorIndex
 90
       18
102
RTVSPost2010Prop41ColorRGB
 90
        0
102
RTVSPost2010PropOp41
 70
     0
102
RTVSPost2010Prop42
 90
       50
102
RTVSPost2010PropOp42
 70
     0
102
RTVSPost2010Prop43
 90
        3
102
RTVSPost2010PropOp43
 70
     0
102
RTVSPost2010Prop44ColorIndex
 90
        5
102
RTVSPost2010Prop44ColorRGB
 90
      255
102
RTVSPost2010PropOp44
 70
     0
102
RTVSPost2010Prop45
280
     0
102
RTVSPost2010PropOp45
 70
     0
102
RTVSPost2010Prop46
 90
       50
102
RTVSPost2010PropOp46
 70
     0
102
RTVSPost2010Prop47
 90
       50
102
RTVSPost2010PropOp47
 70
     0
102
RTVSPost2010Prop48
 90
       50
102
RTVSPost2010PropOp48
 70
     0
102
RTVSPost2010Prop49
280
     0
102
RTVSPost2010PropOp49
 70
     0
102
RTVSPost2010Prop50
 90
       50
102
RTVSPost2010PropOp50
 70
     0
102
RTVSPost2010Prop51ColorIndex
 90
      256
102
RTVSPost2010Prop51ColorRGB
 90
-16777216
102
RTVSPost2010PropOp51
 70
     0
102
RTVSPost2010Prop52
140
1.0
102
RTVSPost2010PropOp52
 70
     0
102
RTVSPost2010Prop53
 90
        2
102
RTVSPost2010PropOp53
 70
     0
102
RTVSPost2010Prop54
  1
strokes_ogs.tif
102
RTVSPost2010PropOp54
 70
     0
102
RTVSPost2010Prop55
280
     0
102
RTVSPost2010PropOp55
 70
     0
102
RTVSPost2010Prop56
140
1.0
102
RTVSPost2010PropOp56
 70
     0
102
RTVSPost2010Prop57
140
1.0
102
RTVSPost2010PropOp57
 70
     0
  0
XRECORD
  5
17B
102
{ACAD_REACTORS
330
17A
102
}
330
17A
100
AcDbXrecord
280
     1
102
RTVSPost2010Prop28
280
     0
102
RTVSPost2010PropOp28
 70
     1
102
RTVSPost2010Prop29
280
     1
102
RTVSPost2010PropOp29
 70
     1
102
RTVSPost2010Prop30
280
     1
102
RTVSPost2010PropOp30
 70
     1
102
RTVSPost2010Prop31
280
     0
102
RTVSPost2010PropOp31
 70
     1
102
RTVSPost2010Prop32
280
     0
102
RTVSPost2010PropOp32
 70
     1
102
RTVSPost2010Prop33
280
     0
102
RTVSPost2010PropOp33
 70
     1
102
RTVSPost2010Prop34
280
     0
102
RTVSPost2010PropOp34
 70
     1
102
RTVSPost2010Prop35
280
     0
102
RTVSPost2010PropOp35
 70
     1
102
RTVSPost2010Prop36
280
     0
102
RTVSPost2010PropOp36
 70
     1
102
RTVSPost2010Prop37
 90
       50
102
RTVSPost2010PropOp37
 70
     1
102
RTVSPost2010Prop38
140
0.0
102
RTVSPost2010PropOp38
 70
     1
102
RTVSPost2010Prop39
140
1.0
102
RTVSPost2010PropOp39
 70
     1
102
RTVSPost2010Prop40
 90
        0
102
RTVSPost2010PropOp40
 70
     1
102
RTVSPost2010Prop41ColorIndex
 90
       18
102
RTVSPost2010Prop41ColorRGB
 90
        0
102
RTVSPost2010PropOp41
 70
     1
102
RTVSPost2010Prop42
 90
       50
102
RTVSPost2010PropOp42
 70
     1
102
RTVSPost2010Prop43
 90
        3
102
RTVSPost2010PropOp43
 70
     1
102
RTVSPost2010Prop44ColorIndex
 90
        5
102
RTVSPost2010Prop44ColorRGB
 90
      255
102
RTVSPost2010PropOp44
 70
     1
102
RTVSPost2010Prop45
280
     0
102
RTVSPost2010PropOp45
 70
     1
102
RTVSPost2010Prop46
 90
       50
102
RTVSPost2010PropOp46
 70
     1
102
RTVSPost2010Prop47
 90
       50
102
RTVSPost2010PropOp47
 70
     1
102
RTVSPost2010Prop48
 90
       50
102
RTVSPost2010PropOp48
 70
     1
102
RTVSPost2010Prop49
280
     0
102
RTVSPost2010PropOp49
 70
     1
102
RTVSPost2010Prop50
 90
       50
102
RTVSPost2010PropOp50
 70
     1
102
RTVSPost2010Prop51ColorIndex
 90
      256
102
RTVSPost2010Prop51ColorRGB
 90
-16777216
102
RTVSPost2010PropOp51
 70
     0
102
RTVSPost2010Prop52
140
1.0
102
RTVSPost2010PropOp52
 70
     0
102
RTVSPost2010Prop53
 90
        2
102
RTVSPost2010PropOp53
 70
     1
102
RTVSPost2010Prop54
  1
strokes_ogs.tif
102
RTVSPost2010PropOp54
 70
     1
102
RTVSPost2010Prop55
280
     0
102
RTVSPost2010PropOp55
 70
     1
102
RTVSPost2010Prop56
140
1.0
102
RTVSPost2010PropOp56
 70
     1
102
RTVSPost2010Prop57
140
1.0
102
RTVSPost2010PropOp57
 70
     1
  0
XRECORD
  5
18D
102
{ACAD_REACTORS
330
18C
102
}
330
18C
100
AcDbXrecord
280
     1
102
RTVSPost2010Prop28
280
     0
102
RTVSPost2010PropOp28
 70
     0
102
RTVSPost2010Prop29
280
     1
102
RTVSPost2010PropOp29
 70
     0
102
RTVSPost2010Prop30
280
     1
102
RTVSPost2010PropOp30
 70
     0
102
RTVSPost2010Prop31
280
     0
102
RTVSPost2010PropOp31
 70
     0
102
RTVSPost2010Prop32
280
     0
102
RTVSPost2010PropOp32
 70
     0
102
RTVSPost2010Prop33
280
     0
102
RTVSPost2010PropOp33
 70
     0
102
RTVSPost2010Prop34
280
     0
102
RTVSPost2010PropOp34
 70
     0
102
RTVSPost2010Prop35
280
     0
102
RTVSPost2010PropOp35
 70
     0
102
RTVSPost2010Prop36
280
     0
102
RTVSPost2010PropOp36
 70
     0
102
RTVSPost2010Prop37
 90
       50
102
RTVSPost2010PropOp37
 70
     0
102
RTVSPost2010Prop38
140
0.0
102
RTVSPost2010PropOp38
 70
     0
102
RTVSPost2010Prop39
140
1.0
102
RTVSPost2010PropOp39
 70
     0
102
RTVSPost2010Prop40
 90
        0
102
RTVSPost2010PropOp40
 70
     0
102
RTVSPost2010Prop41ColorIndex
 90
       18
102
RTVSPost2010Prop41ColorRGB
 90
        0
102
RTVSPost2010PropOp41
 70
     0
102
RTVSPost2010Prop42
 90
       50
102
RTVSPost2010PropOp42
 70
     0
102
RTVSPost2010Prop43
 90
        3
102
RTVSPost2010PropOp43
 70
     0
102
RTVSPost2010Prop44ColorIndex
 90
        5
102
RTVSPost2010Prop44ColorRGB
 90
      255
102
RTVSPost2010PropOp44
 70
     0
102
RTVSPost2010Prop45
280
     0
102
RTVSPost2010PropOp45
 70
     0
102
RTVSPost2010Prop46
 90
       50
102
RTVSPost2010PropOp46
 70
     0
102
RTVSPost2010Prop47
 90
       50
102
RTVSPost2010PropOp47
 70
     0
102
RTVSPost2010Prop48
 90
       50
102
RTVSPost2010PropOp48
 70
     0
102
RTVSPost2010Prop49
280
     0
102
RTVSPost2010PropOp49
 70
     0
102
RTVSPost2010Prop50
 90
       50
102
RTVSPost2010PropOp50
 70
     0
102
RTVSPost2010Prop51ColorIndex
 90
      256
102
RTVSPost2010Prop51ColorRGB
 90
-16777216
102
RTVSPost2010PropOp51
 70
     0
102
RTVSPost2010Prop52
140
1.0
102
RTVSPost2010PropOp52
 70
     0
102
RTVSPost2010Prop53
 90
        2
102
RTVSPost2010PropOp53
 70
     0
102
RTVSPost2010Prop54
  1
strokes_ogs.tif
102
RTVSPost2010PropOp54
 70
     0
102
RTVSPost2010Prop55
280
     0
102
RTVSPost2010PropOp55
 70
     0
102
RTVSPost2010Prop56
140
1.0
102
RTVSPost2010PropOp56
 70
     0
102
RTVSPost2010Prop57
140
1.0
102
RTVSPost2010PropOp57
 70
     0
  0
XRECORD
  5
173
102
{ACAD_REACTORS
330
172
102
}
330
172
100
AcDbXrecord
280
     1
102
RTVSPost2010Prop28
280
     0
102
RTVSPost2010PropOp28
 70
     1
102
RTVSPost2010Prop29
280
     1
102
RTVSPost2010PropOp29
 70
     1
102
RTVSPost2010Prop30
280
     1
102
RTVSPost2010PropOp30
 70
     1
102
RTVSPost2010Prop31
280
     0
102
RTVSPost2010PropOp31
 70
     1
102
RTVSPost2010Prop32
280
     0
102
RTVSPost2010PropOp32
 70
     1
102
RTVSPost2010Prop33
280
     0
102
RTVSPost2010PropOp33
 70
     1
102
RTVSPost2010Prop34
280
     0
102
RTVSPost2010PropOp34
 70
     1
102
RTVSPost2010Prop35
280
     0
102
RTVSPost2010PropOp35
 70
     1
102
RTVSPost2010Prop36
280
     0
102
RTVSPost2010PropOp36
 70
     1
102
RTVSPost2010Prop37
 90
       50
102
RTVSPost2010PropOp37
 70
     1
102
RTVSPost2010Prop38
140
0.0
102
RTVSPost2010PropOp38
 70
     1
102
RTVSPost2010Prop39
140
1.0
102
RTVSPost2010PropOp39
 70
     1
102
RTVSPost2010Prop40
 90
        0
102
RTVSPost2010PropOp40
 70
     1
102
RTVSPost2010Prop41ColorIndex
 90
       18
102
RTVSPost2010Prop41ColorRGB
 90
        0
102
RTVSPost2010PropOp41
 70
     1
102
RTVSPost2010Prop42
 90
       50
102
RTVSPost2010PropOp42
 70
     1
102
RTVSPost2010Prop43
 90
        3
102
RTVSPost2010PropOp43
 70
     1
102
RTVSPost2010Prop44ColorIndex
 90
        5
102
RTVSPost2010Prop44ColorRGB
 90
      255
102
RTVSPost2010PropOp44
 70
     1
102
RTVSPost2010Prop45
280
     0
102
RTVSPost2010PropOp45
 70
     1
102
RTVSPost2010Prop46
 90
       50
102
RTVSPost2010PropOp46
 70
     1
102
RTVSPost2010Prop47
 90
       50
102
RTVSPost2010PropOp47
 70
     1
102
RTVSPost2010Prop48
 90
       50
102
RTVSPost2010PropOp48
 70
     1
102
RTVSPost2010Prop49
280
     0
102
RTVSPost2010PropOp49
 70
     1
102
RTVSPost2010Prop50
 90
       50
102
RTVSPost2010PropOp50
 70
     1
102
RTVSPost2010Prop51ColorIndex
 90
      256
102
RTVSPost2010Prop51ColorRGB
 90
-16777216
102
RTVSPost2010PropOp51
 70
     0
102
RTVSPost2010Prop52
140
1.0
102
RTVSPost2010PropOp52
 70
     0
102
RTVSPost2010Prop53
 90
        2
102
RTVSPost2010PropOp53
 70
     1
102
RTVSPost2010Prop54
  1
strokes_ogs.tif
102
RTVSPost2010PropOp54
 70
     1
102
RTVSPost2010Prop55
280
     0
102
RTVSPost2010PropOp55
 70
     1
102
RTVSPost2010Prop56
140
1.0
102
RTVSPost2010PropOp56
 70
     1
102
RTVSPost2010Prop57
140
1.0
102
RTVSPost2010PropOp57
 70
     1
  0
XRECORD
  5
189
102
{ACAD_REACTORS
330
188
102
}
330
188
100
AcDbXrecord
280
     1
102
RTVSPost2010Prop28
280
     0
102
RTVSPost2010PropOp28
 70
     1
102
RTVSPost2010Prop29
280
     1
102
RTVSPost2010PropOp29
 70
     1
102
RTVSPost2010Prop30
280
     1
102
RTVSPost2010PropOp30
 70
     1
102
RTVSPost2010Prop31
280
     0
102
RTVSPost2010PropOp31
 70
     1
102
RTVSPost2010Prop32
280
     0
102
RTVSPost2010PropOp32
 70
     1
102
RTVSPost2010Prop33
280
     0
102
RTVSPost2010PropOp33
 70
     1
102
RTVSPost2010Prop34
280
     0
102
RTVSPost2010PropOp34
 70
     1
102
RTVSPost2010Prop35
280
     0
102
RTVSPost2010PropOp35
 70
     1
102
RTVSPost2010Prop36
280
     0
102
RTVSPost2010PropOp36
 70
     1
102
RTVSPost2010Prop37
 90
       50
102
RTVSPost2010PropOp37
 70
     1
102
RTVSPost2010Prop38
140
0.0
102
RTVSPost2010PropOp38
 70
     1
102
RTVSPost2010Prop39
140
1.0
102
RTVSPost2010PropOp39
 70
     1
102
RTVSPost2010Prop40
 90
        0
102
RTVSPost2010PropOp40
 70
     1
102
RTVSPost2010Prop41ColorIndex
 90
       18
102
RTVSPost2010Prop41ColorRGB
 90
        0
102
RTVSPost2010PropOp41
 70
     1
102
RTVSPost2010Prop42
 90
       50
102
RTVSPost2010PropOp42
 70
     1
102
RTVSPost2010Prop43
 90
        3
102
RTVSPost2010PropOp43
 70
     1
102
RTVSPost2010Prop44ColorIndex
 90
        5
102
RTVSPost2010Prop44ColorRGB
 90
      255
102
RTVSPost2010PropOp44
 70
     1
102
RTVSPost2010Prop45
280
     0
102
RTVSPost2010PropOp45
 70
     1
102
RTVSPost2010Prop46
 90
       50
102
RTVSPost2010PropOp46
 70
     1
102
RTVSPost2010Prop47
 90
       50
102
RTVSPost2010PropOp47
 70
     1
102
RTVSPost2010Prop48
 90
       50
102
RTVSPost2010PropOp48
 70
     1
102
RTVSPost2010Prop49
280
     0
102
RTVSPost2010PropOp49
 70
     1
102
RTVSPost2010Prop50
 90
       50
102
RTVSPost2010PropOp50
 70
     1
102
RTVSPost2010Prop51ColorIndex
 90
      256
102
RTVSPost2010Prop51ColorRGB
 90
-16777216
102
RTVSPost2010PropOp51
 70
     0
102
RTVSPost2010Prop52
140
1.0
102
RTVSPost2010PropOp52
 70
     0
102
RTVSPost2010Prop53
 90
        2
102
RTVSPost2010PropOp53
 70
     1
102
RTVSPost2010Prop54
  1
strokes_ogs.tif
102
RTVSPost2010PropOp54
 70
     1
102
RTVSPost2010Prop55
280
     0
102
RTVSPost2010PropOp55
 70
     1
102
RTVSPost2010Prop56
140
1.0
102
RTVSPost2010PropOp56
 70
     1
102
RTVSPost2010Prop57
140
1.0
102
RTVSPost2010PropOp57
 70
     1
  0
XRECORD
  5
187
102
{ACAD_REACTORS
330
186
102
}
330
186
100
AcDbXrecord
280
     1
102
RTVSPost2010Prop28
280
     0
102
RTVSPost2010PropOp28
 70
     1
102
RTVSPost2010Prop29
280
     1
102
RTVSPost2010PropOp29
 70
     1
102
RTVSPost2010Prop30
280
     1
102
RTVSPost2010PropOp30
 70
     1
102
RTVSPost2010Prop31
280
     0
102
RTVSPost2010PropOp31
 70
     1
102
RTVSPost2010Prop32
280
     0
102
RTVSPost2010PropOp32
 70
     1
102
RTVSPost2010Prop33
280
     0
102
RTVSPost2010PropOp33
 70
     1
102
RTVSPost2010Prop34
280
     0
102
RTVSPost2010PropOp34
 70
     1
102
RTVSPost2010Prop35
280
     0
102
RTVSPost2010PropOp35
 70
     1
102
RTVSPost2010Prop36
280
     0
102
RTVSPost2010PropOp36
 70
     1
102
RTVSPost2010Prop37
 90
       50
102
RTVSPost2010PropOp37
 70
     1
102
RTVSPost2010Prop38
140
0.0
102
RTVSPost2010PropOp38
 70
     1
102
RTVSPost2010Prop39
140
1.0
102
RTVSPost2010PropOp39
 70
     1
102
RTVSPost2010Prop40
 90
        0
102
RTVSPost2010PropOp40
 70
     1
102
RTVSPost2010Prop41ColorIndex
 90
       18
102
RTVSPost2010Prop41ColorRGB
 90
        0
102
RTVSPost2010PropOp41
 70
     1
102
RTVSPost2010Prop42
 90
       50
102
RTVSPost2010PropOp42
 70
     1
102
RTVSPost2010Prop43
 90
        3
102
RTVSPost2010PropOp43
 70
     1
102
RTVSPost2010Prop44ColorIndex
 90
        5
102
RTVSPost2010Prop44ColorRGB
 90
      255
102
RTVSPost2010PropOp44
 70
     1
102
RTVSPost2010Prop45
280
     0
102
RTVSPost2010PropOp45
 70
     1
102
RTVSPost2010Prop46
 90
       50
102
RTVSPost2010PropOp46
 70
     1
102
RTVSPost2010Prop47
 90
       50
102
RTVSPost2010PropOp47
 70
     1
102
RTVSPost2010Prop48
 90
       50
102
RTVSPost2010PropOp48
 70
     1
102
RTVSPost2010Prop49
280
     0
102
RTVSPost2010PropOp49
 70
     1
102
RTVSPost2010Prop50
 90
       50
102
RTVSPost2010PropOp50
 70
     1
102
RTVSPost2010Prop51ColorIndex
 90
      256
102
RTVSPost2010Prop51ColorRGB
 90
-16777216
102
RTVSPost2010PropOp51
 70
     0
102
RTVSPost2010Prop52
140
1.0
102
RTVSPost2010PropOp52
 70
     0
102
RTVSPost2010Prop53
 90
        2
102
RTVSPost2010PropOp53
 70
     1
102
RTVSPost2010Prop54
  1
strokes_ogs.tif
102
RTVSPost2010PropOp54
 70
     1
102
RTVSPost2010Prop55
280
     0
102
RTVSPost2010PropOp55
 70
     1
102
RTVSPost2010Prop56
140
1.0
102
RTVSPost2010PropOp56
 70
     1
102
RTVSPost2010Prop57
140
1.0
102
RTVSPost2010PropOp57
 70
     1
  0
XRECORD
  5
181
102
{ACAD_REACTORS
330
180
102
}
330
180
100
AcDbXrecord
280
     1
102
RTVSPost2010Prop28
280
     0
102
RTVSPost2010PropOp28
 70
     1
102
RTVSPost2010Prop29
280
     1
102
RTVSPost2010PropOp29
 70
     1
102
RTVSPost2010Prop30
280
     1
102
RTVSPost2010PropOp30
 70
     1
102
RTVSPost2010Prop31
280
     0
102
RTVSPost2010PropOp31
 70
     1
102
RTVSPost2010Prop32
280
     0
102
RTVSPost2010PropOp32
 70
     1
102
RTVSPost2010Prop33
280
     0
102
RTVSPost2010PropOp33
 70
     1
102
RTVSPost2010Prop34
280
     0
102
RTVSPost2010PropOp34
 70
     1
102
RTVSPost2010Prop35
280
     0
102
RTVSPost2010PropOp35
 70
     1
102
RTVSPost2010Prop36
280
     0
102
RTVSPost2010PropOp36
 70
     1
102
RTVSPost2010Prop37
 90
       50
102
RTVSPost2010PropOp37
 70
     1
102
RTVSPost2010Prop38
140
0.0
102
RTVSPost2010PropOp38
 70
     1
102
RTVSPost2010Prop39
140
1.0
102
RTVSPost2010PropOp39
 70
     1
102
RTVSPost2010Prop40
 90
        0
102
RTVSPost2010PropOp40
 70
     1
102
RTVSPost2010Prop41ColorIndex
 90
       18
102
RTVSPost2010Prop41ColorRGB
 90
        0
102
RTVSPost2010PropOp41
 70
     1
102
RTVSPost2010Prop42
 90
       50
102
RTVSPost2010PropOp42
 70
     1
102
RTVSPost2010Prop43
 90
        3
102
RTVSPost2010PropOp43
 70
     1
102
RTVSPost2010Prop44ColorIndex
 90
        5
102
RTVSPost2010Prop44ColorRGB
 90
      255
102
RTVSPost2010PropOp44
 70
     1
102
RTVSPost2010Prop45
280
     0
102
RTVSPost2010PropOp45
 70
     1
102
RTVSPost2010Prop46
 90
       50
102
RTVSPost2010PropOp46
 70
     1
102
RTVSPost2010Prop47
 90
       50
102
RTVSPost2010PropOp47
 70
     1
102
RTVSPost2010Prop48
 90
       50
102
RTVSPost2010PropOp48
 70
     1
102
RTVSPost2010Prop49
280
     0
102
RTVSPost2010PropOp49
 70
     1
102
RTVSPost2010Prop50
 90
       50
102
RTVSPost2010PropOp50
 70
     1
102
RTVSPost2010Prop51ColorIndex
 90
      256
102
RTVSPost2010Prop51ColorRGB
 90
-16777216
102
RTVSPost2010PropOp51
 70
     0
102
RTVSPost2010Prop52
140
1.0
102
RTVSPost2010PropOp52
 70
     0
102
RTVSPost2010Prop53
 90
        2
102
RTVSPost2010PropOp53
 70
     1
102
RTVSPost2010Prop54
  1
strokes_ogs.tif
102
RTVSPost2010PropOp54
 70
     1
102
RTVSPost2010Prop55
280
     0
102
RTVSPost2010PropOp55
 70
     1
102
RTVSPost2010Prop56
140
1.0
102
RTVSPost2010PropOp56
 70
     1
102
RTVSPost2010Prop57
140
1.0
102
RTVSPost2010PropOp57
 70
     1
  0
XRECORD
  5
183
102
{ACAD_REACTORS
330
182
102
}
330
182
100
AcDbXrecord
280
     1
102
RTVSPost2010Prop28
280
     0
102
RTVSPost2010PropOp28
 70
     1
102
RTVSPost2010Prop29
280
     1
102
RTVSPost2010PropOp29
 70
     1
102
RTVSPost2010Prop30
280
     1
102
RTVSPost2010PropOp30
 70
     1
102
RTVSPost2010Prop31
280
     0
102
RTVSPost2010PropOp31
 70
     1
102
RTVSPost2010Prop32
280
     0
102
RTVSPost2010PropOp32
 70
     1
102
RTVSPost2010Prop33
280
     0
102
RTVSPost2010PropOp33
 70
     1
102
RTVSPost2010Prop34
280
     0
102
RTVSPost2010PropOp34
 70
     1
102
RTVSPost2010Prop35
280
     0
102
RTVSPost2010PropOp35
 70
     1
102
RTVSPost2010Prop36
280
     0
102
RTVSPost2010PropOp36
 70
     1
102
RTVSPost2010Prop37
 90
       50
102
RTVSPost2010PropOp37
 70
     1
102
RTVSPost2010Prop38
140
0.0
102
RTVSPost2010PropOp38
 70
     1
102
RTVSPost2010Prop39
140
1.0
102
RTVSPost2010PropOp39
 70
     1
102
RTVSPost2010Prop40
 90
        0
102
RTVSPost2010PropOp40
 70
     1
102
RTVSPost2010Prop41ColorIndex
 90
       18
102
RTVSPost2010Prop41ColorRGB
 90
        0
102
RTVSPost2010PropOp41
 70
     1
102
RTVSPost2010Prop42
 90
       50
102
RTVSPost2010PropOp42
 70
     1
102
RTVSPost2010Prop43
 90
        3
102
RTVSPost2010PropOp43
 70
     1
102
RTVSPost2010Prop44ColorIndex
 90
        5
102
RTVSPost2010Prop44ColorRGB
 90
      255
102
RTVSPost2010PropOp44
 70
     1
102
RTVSPost2010Prop45
280
     0
102
RTVSPost2010PropOp45
 70
     1
102
RTVSPost2010Prop46
 90
       50
102
RTVSPost2010PropOp46
 70
     1
102
RTVSPost2010Prop47
 90
       50
102
RTVSPost2010PropOp47
 70
     1
102
RTVSPost2010Prop48
 90
       50
102
RTVSPost2010PropOp48
 70
     1
102
RTVSPost2010Prop49
280
     0
102
RTVSPost2010PropOp49
 70
     1
102
RTVSPost2010Prop50
 90
       50
102
RTVSPost2010PropOp50
 70
     1
102
RTVSPost2010Prop51ColorIndex
 90
      256
102
RTVSPost2010Prop51ColorRGB
 90
-16777216
102
RTVSPost2010PropOp51
 70
     0
102
RTVSPost2010Prop52
140
1.0
102
RTVSPost2010PropOp52
 70
     0
102
RTVSPost2010Prop53
 90
        2
102
RTVSPost2010PropOp53
 70
     1
102
RTVSPost2010Prop54
  1
strokes_ogs.tif
102
RTVSPost2010PropOp54
 70
     1
102
RTVSPost2010Prop55
280
     0
102
RTVSPost2010PropOp55
 70
     1
102
RTVSPost2010Prop56
140
1.0
102
RTVSPost2010PropOp56
 70
     1
102
RTVSPost2010Prop57
140
1.0
102
RTVSPost2010PropOp57
 70
     1
  0
XRECORD
  5
179
102
{ACAD_REACTORS
330
178
102
}
330
178
100
AcDbXrecord
280
     1
102
RTVSPost2010Prop28
280
     0
102
RTVSPost2010PropOp28
 70
     1
102
RTVSPost2010Prop29
280
     1
102
RTVSPost2010PropOp29
 70
     1
102
RTVSPost2010Prop30
280
     1
102
RTVSPost2010PropOp30
 70
     1
102
RTVSPost2010Prop31
280
     0
102
RTVSPost2010PropOp31
 70
     1
102
RTVSPost2010Prop32
280
     0
102
RTVSPost2010PropOp32
 70
     1
102
RTVSPost2010Prop33
280
     0
102
RTVSPost2010PropOp33
 70
     1
102
RTVSPost2010Prop34
280
     0
102
RTVSPost2010PropOp34
 70
     1
102
RTVSPost2010Prop35
280
     0
102
RTVSPost2010PropOp35
 70
     1
102
RTVSPost2010Prop36
280
     0
102
RTVSPost2010PropOp36
 70
     1
102
RTVSPost2010Prop37
 90
       50
102
RTVSPost2010PropOp37
 70
     1
102
RTVSPost2010Prop38
140
0.0
102
RTVSPost2010PropOp38
 70
     1
102
RTVSPost2010Prop39
140
1.0
102
RTVSPost2010PropOp39
 70
     1
102
RTVSPost2010Prop40
 90
        0
102
RTVSPost2010PropOp40
 70
     1
102
RTVSPost2010Prop41ColorIndex
 90
       18
102
RTVSPost2010Prop41ColorRGB
 90
        0
102
RTVSPost2010PropOp41
 70
     1
102
RTVSPost2010Prop42
 90
       50
102
RTVSPost2010PropOp42
 70
     1
102
RTVSPost2010Prop43
 90
        3
102
RTVSPost2010PropOp43
 70
     1
102
RTVSPost2010Prop44ColorIndex
 90
        5
102
RTVSPost2010Prop44ColorRGB
 90
      255
102
RTVSPost2010PropOp44
 70
     1
102
RTVSPost2010Prop45
280
     0
102
RTVSPost2010PropOp45
 70
     1
102
RTVSPost2010Prop46
 90
       50
102
RTVSPost2010PropOp46
 70
     1
102
RTVSPost2010Prop47
 90
       50
102
RTVSPost2010PropOp47
 70
     1
102
RTVSPost2010Prop48
 90
       50
102
RTVSPost2010PropOp48
 70
     1
102
RTVSPost2010Prop49
280
     0
102
RTVSPost2010PropOp49
 70
     1
102
RTVSPost2010Prop50
 90
       50
102
RTVSPost2010PropOp50
 70
     1
102
RTVSPost2010Prop51ColorIndex
 90
      256
102
RTVSPost2010Prop51ColorRGB
 90
-16777216
102
RTVSPost2010PropOp51
 70
     0
102
RTVSPost2010Prop52
140
1.0
102
RTVSPost2010PropOp52
 70
     0
102
RTVSPost2010Prop53
 90
        2
102
RTVSPost2010PropOp53
 70
     1
102
RTVSPost2010Prop54
  1
strokes_ogs.tif
102
RTVSPost2010PropOp54
 70
     1
102
RTVSPost2010Prop55
280
     0
102
RTVSPost2010PropOp55
 70
     1
102
RTVSPost2010Prop56
140
1.0
102
RTVSPost2010PropOp56
 70
     1
102
RTVSPost2010Prop57
140
1.0
102
RTVSPost2010PropOp57
 70
     1
  0
XRECORD
  5
16D
102
{ACAD_REACTORS
330
16C
102
}
330
16C
100
AcDbXrecord
280
     1
102
RTVSPost2010Prop28
280
     0
102
RTVSPost2010PropOp28
 70
     1
102
RTVSPost2010Prop29
280
     1
102
RTVSPost2010PropOp29
 70
     1
102
RTVSPost2010Prop30
280
     1
102
RTVSPost2010PropOp30
 70
     1
102
RTVSPost2010Prop31
280
     0
102
RTVSPost2010PropOp31
 70
     1
102
RTVSPost2010Prop32
280
     0
102
RTVSPost2010PropOp32
 70
     1
102
RTVSPost2010Prop33
280
     0
102
RTVSPost2010PropOp33
 70
     1
102
RTVSPost2010Prop34
280
     0
102
RTVSPost2010PropOp34
 70
     1
102
RTVSPost2010Prop35
280
     0
102
RTVSPost2010PropOp35
 70
     1
102
RTVSPost2010Prop36
280
     0
102
RTVSPost2010PropOp36
 70
     1
102
RTVSPost2010Prop37
 90
       50
102
RTVSPost2010PropOp37
 70
     1
102
RTVSPost2010Prop38
140
0.0
102
RTVSPost2010PropOp38
 70
     1
102
RTVSPost2010Prop39
140
1.0
102
RTVSPost2010PropOp39
 70
     1
102
RTVSPost2010Prop40
 90
        0
102
RTVSPost2010PropOp40
 70
     1
102
RTVSPost2010Prop41ColorIndex
 90
       18
102
RTVSPost2010Prop41ColorRGB
 90
        0
102
RTVSPost2010PropOp41
 70
     1
102
RTVSPost2010Prop42
 90
       50
102
RTVSPost2010PropOp42
 70
     1
102
RTVSPost2010Prop43
 90
        3
102
RTVSPost2010PropOp43
 70
     1
102
RTVSPost2010Prop44ColorIndex
 90
        5
102
RTVSPost2010Prop44ColorRGB
 90
      255
102
RTVSPost2010PropOp44
 70
     1
102
RTVSPost2010Prop45
280
     0
102
RTVSPost2010PropOp45
 70
     1
102
RTVSPost2010Prop46
 90
       50
102
RTVSPost2010PropOp46
 70
     1
102
RTVSPost2010Prop47
 90
       50
102
RTVSPost2010PropOp47
 70
     1
102
RTVSPost2010Prop48
 90
       50
102
RTVSPost2010PropOp48
 70
     1
102
RTVSPost2010Prop49
280
     0
102
RTVSPost2010PropOp49
 70
     1
102
RTVSPost2010Prop50
 90
       50
102
RTVSPost2010PropOp50
 70
     1
102
RTVSPost2010Prop51ColorIndex
 90
      256
102
RTVSPost2010Prop51ColorRGB
 90
-16777216
102
RTVSPost2010PropOp51
 70
     0
102
RTVSPost2010Prop52
140
1.0
102
RTVSPost2010PropOp52
 70
     0
102
RTVSPost2010Prop53
 90
        2
102
RTVSPost2010PropOp53
 70
     1
102
RTVSPost2010Prop54
  1
strokes_ogs.tif
102
RTVSPost2010PropOp54
 70
     1
102
RTVSPost2010Prop55
280
     0
102
RTVSPost2010PropOp55
 70
     1
102
RTVSPost2010Prop56
140
1.0
102
RTVSPost2010PropOp56
 70
     1
102
RTVSPost2010Prop57
140
1.0
102
RTVSPost2010PropOp57
 70
     1
  0
XRECORD
  5
185
102
{ACAD_REACTORS
330
184
102
}
330
184
100
AcDbXrecord
280
     1
102
RTVSPost2010Prop28
280
     0
102
RTVSPost2010PropOp28
 70
     1
102
RTVSPost2010Prop29
280
     1
102
RTVSPost2010PropOp29
 70
     1
102
RTVSPost2010Prop30
280
     1
102
RTVSPost2010PropOp30
 70
     1
102
RTVSPost2010Prop31
280
     0
102
RTVSPost2010PropOp31
 70
     1
102
RTVSPost2010Prop32
280
     0
102
RTVSPost2010PropOp32
 70
     1
102
RTVSPost2010Prop33
280
     0
102
RTVSPost2010PropOp33
 70
     1
102
RTVSPost2010Prop34
280
     0
102
RTVSPost2010PropOp34
 70
     1
102
RTVSPost2010Prop35
280
     0
102
RTVSPost2010PropOp35
 70
     1
102
RTVSPost2010Prop36
280
     0
102
RTVSPost2010PropOp36
 70
     1
102
RTVSPost2010Prop37
 90
       50
102
RTVSPost2010PropOp37
 70
     1
102
RTVSPost2010Prop38
140
0.0
102
RTVSPost2010PropOp38
 70
     1
102
RTVSPost2010Prop39
140
1.0
102
RTVSPost2010PropOp39
 70
     1
102
RTVSPost2010Prop40
 90
        0
102
RTVSPost2010PropOp40
 70
     1
102
RTVSPost2010Prop41ColorIndex
 90
       18
102
RTVSPost2010Prop41ColorRGB
 90
        0
102
RTVSPost2010PropOp41
 70
     1
102
RTVSPost2010Prop42
 90
       50
102
RTVSPost2010PropOp42
 70
     1
102
RTVSPost2010Prop43
 90
        3
102
RTVSPost2010PropOp43
 70
     1
102
RTVSPost2010Prop44ColorIndex
 90
        5
102
RTVSPost2010Prop44ColorRGB
 90
      255
102
RTVSPost2010PropOp44
 70
     1
102
RTVSPost2010Prop45
280
     0
102
RTVSPost2010PropOp45
 70
     1
102
RTVSPost2010Prop46
 90
       50
102
RTVSPost2010PropOp46
 70
     1
102
RTVSPost2010Prop47
 90
       50
102
RTVSPost2010PropOp47
 70
     1
102
RTVSPost2010Prop48
 90
       50
102
RTVSPost2010PropOp48
 70
     1
102
RTVSPost2010Prop49
280
     0
102
RTVSPost2010PropOp49
 70
     1
102
RTVSPost2010Prop50
 90
       50
102
RTVSPost2010PropOp50
 70
     1
102
RTVSPost2010Prop51ColorIndex
 90
      256
102
RTVSPost2010Prop51ColorRGB
 90
-16777216
102
RTVSPost2010PropOp51
 70
     0
102
RTVSPost2010Prop52
140
1.0
102
RTVSPost2010PropOp52
 70
     0
102
RTVSPost2010Prop53
 90
        2
102
RTVSPost2010PropOp53
 70
     1
102
RTVSPost2010Prop54
  1
strokes_ogs.tif
102
RTVSPost2010PropOp54
 70
     1
102
RTVSPost2010Prop55
280
     0
102
RTVSPost2010PropOp55
 70
     1
102
RTVSPost2010Prop56
140
1.0
102
RTVSPost2010PropOp56
 70
     1
102
RTVSPost2010Prop57
140
1.0
102
RTVSPost2010PropOp57
 70
     1
  0
ENDSEC
  0
EOF
